Amos Lee - Stay With Me tab

-------------------------------------------------------------------------------
			     Stay With Me - Amos Lee
-------------------------------------------------------------------------------
Tabbed by: Kelvin Hayes
Email:khayes874@gmail.com

This is based off his acoustic version which you can watch on YouTube.
This tab is 99% right, but Amos plays with a ton of subtlety, so some
notes are barely audible - indicated here by parenthesis like this: (0).
Great song & have fun!

CAPO: 3RD FRET

Tuning:Standard

e|-----------------------------------------------------------0---------------|
B|-------------------------3-3----------(0)----(0)-------------3---3--------3|
G|----2---2----2p(0)---0--------------0------0------0---2--------2------2----|
D|--0---0------------2---2------2/4-5------4------2---0---------------0---0--|
A|-------------------0-------------------------------------------------------|
E|---------------------------------------------------------------------------|

e|---------------0----------------------------------0h2----------------------|
B|-----------------3----------(0)-----(0)---------3-----3--------------------|
G|--2p(0)---0---------------0-------0-------0---2---------2------------------|
D|--------2---2-------2/4-5-------4-------2---0------------------------------|
A|--------0------------------------------------------------------------------|
E|---------------------------------------------------------------------------|


************************************

| /   slide up
| \   slide down
| h   hammer-on
| p   pull-off
| ~   vibrato
| +   harmonic
| x   Mute note
| b   Bend
| pb  Pre-bend
| br  Bend release
| pbr Pre-bend release
| brb Bend release bend

************************************
Tap to rate this tab
 
# A B C D E F G H I J K L M N O P Q R S T U V W X Y Z