Song name
# A B C D E F G H I J K L M N O P Q R S T U V W X Y Z

Amos Lee - Keep It Loose Keep It Tight tab

Keep it Loose, Keep it Tight by Amos Lee

Seems no real perfect tablature exists for this song, so thought Id go ahead and tab it
cause its such a good song. So far I am only certain with the intro, but you should be
able to work from this and figure where the song goes, its nothing too difficult. Any 
help would be much appreciated.

No Capo

/ = slide


E |-------5---------------------------------------------7-----------------------------|
A |-------7---------7-----------------------------------9-------9---------------------|
D |-------7-------------7------------------7/9----------9-----------9-----------9/7---|
G |-------6-----------------------------6---------------8--------------------8--------|
B |-------0---------------------------------------------0-----------------------------|
e |----------------------------0----------------------------------------0-------------|


E |-------5---------------------------------------------7-----------------------------|
A |-------7---------7-----------------------------------9-------9---------------------|
D |-------7-------------7------------------7/9----------9-----------9-----------9/7---|
G |-------6-----------------------------6---------------8--------------------8--------|
B |-------0---------------------------------------------0-----------------------------|
e |----------------------------0----------------------------------------0-------------|



E |-------5---------------------------------------------7-----------------------------|
A |-------7---------7-----------------------------------9-------9---------------------|
D |-------7-------------7------------------7/9----------9-----------9-----------9/7---|
G |-------6-----------------------------6---------------8--------------------8--------|
B |-------0---------------------------------------------0-----------------------------|
e |----------------------------0----------------------------------------0-------------|
Tap to rate this tab
# A B C D E F G H I J K L M N O P Q R S T U V W X Y Z