Song name
# A B C D E F G H I J K L M N O P Q R S T U V W X Y Z

Amos The Transparent - Lemons tab

First time I've posted any tabs! Learnt this beautiful song by ear... It might not be 
100% correct but it's prety close! Comments are welcome...


Intro

e|-------------------------------------------|
a|-------------------------------------------|
d|-------------------------------------------|
g|---------9-11-9-----9-----11-9-------------|     2x
b|--11-9h11-------9h11-------------12-11-----|
E|-9----------------------12-----12----------|


Chorus

e|------------------------------------------|
a|------------------------------------------|
d|---------------8-9------------------------|
g|-------------9-------------11-9-----------|     10x
b|---------9-11----------------------12-11--|
e|-9-11-12-----------9-11-12------12--------|




e|---------------------|
a|---------------------|
d|-13-11--14-13--------|
g|------14-----13-14---|  3x
b|------------------14-|
E|---------------------|

Then

e|-----------------------|
a|-----------------------|
d|-13-11--14-------------|
g|------14---13-13-13-14-|
b|-----------------------|
E|-----------------------|


Ending

e|---------------------|
a|-12-10-9-------------|
d|--------11-9---------|
g|------------13-11----|
b|-----------------14--|
E|---------------------|
Tap to rate this tab
 
# A B C D E F G H I J K L M N O P Q R S T U V W X Y Z