Guitaretab - guitar tabs
Song name
# A B C D E F G H I J K L M N O P Q R S T U V W X Y Z

Amplifier - One Great Summer tab

Amplifier - One Great Summer
Tabber: Johannes DŁnnebeil
Tuning: Dropped Db (Eb|Bb|Gb|Db|Ab|Db)
Email: joh(at)duennebeil.info
www.amplifiertheband.com

Intro
-------------------------|
-------------------------|
-------------------------|
---------7-------9-------|
---------7-------7-------|
---------7-------7-------|


Verse 1
--------------------------------------------|
--------------------------------------------|
---6-6-6------6h7p6--6-6-6------------------|
----------7------------------5-5-5h7--------|
--------------------------------------------|
--------------------------------------------|


Fill 1
--------------------------------------------------------------------------|
--------------------------------------------------------------------------|
---6---6-6-6---6---6---6---7---7---6---7---9---7---9---9-9-9---9----------|
--------------------------------------------------------------------------|
---4---4-4-4---4---4---4---5---5---4---5---7---5---7---7-7-7---7----------|
--------------------------------------------------------------------------|

---------------------------------------------|
---------------------------------------------|
---9--9---12---12---11---11---9---9----------|
---------------------------------------------|
---7--7---10---10----9----9---7---7----------|
---------------------------------------------|


Verse 2
(Nearly the same as Verse 1, but since I'm not quite sure,
which one is right I just thought I'd put both versions here...just improvise)
-------------------------------------------------|
-------------------------------------------------|
---6-6-6-----6h7p6---6---------------------------|
-----------7------------7----7-----5-5-5h7-------|
-------------------------------------------------|
-------------------------------------------------|


Chorus
-------------------------------------------------------|
-------------------------------------------------------|
--|_______2x_________|---------------------------------|
--7---0---7---0---3/10------7---0---7---0---(7)?!?-----|
--7---0---7---0---3/10------7---0---7---0---(7)?!?-----|
--7---0---7---0---3/10------7---0---7---0---(7)?!?-----|


Post-Chorus
------------------------------------|--------------|-------------|--------------|
--14--14------12--12----10--10------|--7--7--------|--7--7h8p7---|-7--7---------|
--------------------------------9---|--------7h9---|-------------|--------7h9---|
----------14---------14-------------|--------------|-------------|--------------|
------------------------------------|--------------|-------------|--------------|
------------------------------------|--------------|-------------|--------------|
                                    | first 2times | third time  |fourth time

Verse 3
--------------------------------------------|
--------------------------------------------|
---6-6-6------6h7p6--6-6-6------------------|
----------7------------------5-5-5h7--------| (x2)
--------------------------------------------|
--------------------------------------------|

Variation
------------------5------------------------------5----------|
------------5--7-----8---------------------5--7-----8-------|
------6--7--------------6--6--------6--7--------------4--4--|
------------------------------------------------------------|
------------------------------------------------------------|
------------------------------------------------------------|

afterwards go back to verse for one time

[ Tab from: http://www.guitaretab.com/a/amplifier/83331.html ]
Fill 1
--------------------------------------------------------------------------|
--------------------------------------------------------------------------|
---6---6-6-6---6---6---6---7---7---6---7---9---7---9---9-9-9---9----------|
--------------------------------------------------------------------------|
---4---4-4-4---4---4---4---5---5---4---5---7---5---7---7-7-7---7----------|
--------------------------------------------------------------------------|

---------------------------------------------|
---------------------------------------------|
---9--9---12---12---11---11---9---9----------|
---------------------------------------------|
---7--7---10---10----9----9---7---7----------|
---------------------------------------------|


Chorus
-------------------------------------------------------|
-------------------------------------------------------|
--|_______2x_________|---------------------------------|
--7---0---7---0---3/10------7---0---7---0---(7)?!?-----|
--7---0---7---0---3/10------7---0---7---0---(7)?!?-----|
--7---0---7---0---3/10------7---0---7---0---(7)?!?-----|


Bridge
------------------------------------------------------------------10---------------|
--10-----10--12--13-----13--12--10--10--12----10--12--13--13--13------10--12-------|
-----------------------------------------------------------------------------------|
-----------------------------------------------------------------------------------|
-----------------------------------------------------------------------------------|
-----------------------------------------------------------------------------------|

--------------------------------12------10-----------------------------------------|
--10--10--12----12--10--12--13------13------10--12----10--10--12--12--10--12--13---|
-----------------------------------------------------------------------------------|
-----------------------------------------------------------------------------------|
-----------------------------------------------------------------------------------|
-----------------------------------------------------------------------------------|


Post-Chorus
------------------------------------|--------------|-------------|--------------|
--14--14------12--12----10--10------|--7--7--------|--7--7h8p7---|-7--7---------|
--------------------------------9---|--------7h9---|-------------|--------7h9---|
----------14---------14-------------|--------------|-------------|--------------|
------------------------------------|--------------|-------------|--------------|
------------------------------------|--------------|-------------|--------------|
                                    | first 2times | third time  |fourth time

Verse 4
--------------------------------------------|
--------------------------------------------|
---6-6-6------6h7p6--6-6-6------------------|
----------7------------------5-5-5h7--------| (x2)
--------------------------------------------|
--------------------------------------------|

Variation
------------------5------------------------------5----------|
------------5--7-----8---------------------5--7-----8-------|
------6--7--------------6--6--------6--7--------------4--4--|
------------------------------------------------------------|
------------------------------------------------------------|
------------------------------------------------------------|

afterwards go back to verse for one time


Chorus
-------------------------------------------------------|
-------------------------------------------------------|
--|_______2x_________|---------------------------------|
--7---0---7---0---3/10------7---0---7---0---(7)?!?-----|
--7---0---7---0---3/10------7---0---7---0---(7)?!?-----|
--7---0---7---0---3/10------7---0---7---0---(7)?!?-----|


Well, I gave my best =)
Rythm and strumming is almost missing, find out yourself and someone please try to tab 
"somewhere the moment will finally land"-part, since I cannot differentiate bass and guitar...

Have fun!
Related for One Great Summer tab