Song name
# A B C D E F G H I J K L M N O P Q R S T U V W X Y Z

Amps - Pacer tab

Chords:

 Verse
 ---------------------------------------------------|
 ----6----2----6---------6----2----6----2-----------|
 ----6----3----6----5----6----3----6----3-----------|
 ----6----4----6----6----6----4----6----4-----------|
 ----4----4----4----6----4----4----4----4-----------|
 -------------------4-------------------------------|repeat


Chorus:
 ----------------------------------------------------|
 ---2----6----2--------------------------------------|
 ---3----6----3----5---------------------------------|
 ---4----6----4----6---------------------------------|
 ---4----4----4----6---------------------------------|
 ------------------4---------------------------------|

Then repeat following the song
Tap to rate this tab
# A B C D E F G H I J K L M N O P Q R S T U V W X Y Z