Song name
# A B C D E F G H I J K L M N O P Q R S T U V W X Y Z

Amr15 - Hardened tab

This song is so easy to play but it still sounds good. Enjoy.
AMR15- Hardend

Verse(repeat until chorus. probably 5 times)
------------------------------------------------------
------------------------------------------------------
------------------------------------------------------
------------------------------------------------------
-5(x7)-0(x7)-3(x7)------------------------------------
-------------------3(x7)------------------------------

Chorus
------------------------------------------------------
------------------------------------------------------
------------------------------------------------------
-2------0------4------6------7------------------------
-2------2------4------6------7------------------------
-0-(x8)-2-(x8)-3-(x5)-5-(x2)-6-(x---------------------

Bridge(repeat 4 times)
------------------------------------------------------
------------------------------------------------------
------------------------------------------------------
------------------------------------------------------
-5-55-0-3-5-55-8-6------------------------------------
------------------------------------------------------

Solo
-10(x3)-8(x3)-6(x3)-4(x7)-3(x7)-4(x7)-----------------
--------------------------------------3(x7)-4(x7)-----
------------------------------------------------------
------------------------------------------------------
------------------------------------------------------
------------------------------------------------------

Solo continued...(repeat all the stuff on the 1st line)

--------------------13-11-10-12-11-10-11-10-9-10-9-8--
9(x3)-11(x4)-13(x8)-----------------------------------
------------------------------------------------------
------------------------------------------------------
------------------------------------------------------
------------------------------------------------------

solo ending....(let the last note ring)
-9------------------------------------------------------
---8-9--------------------------------------------------
-------7-8----------------------------------------------
------------6-7-----------------------------------------
--------------------------------------------------------
--------------------------------------------------------

Order
-----
verse
chorus
bridge
verse
chorus
bridge
verse
chorus
solo
chorus
chorus
chorus
Tap to rate this tab
# A B C D E F G H I J K L M N O P Q R S T U V W X Y Z