Song name
# A B C D E F G H I J K L M N O P Q R S T U V W X Y Z

Amulet - Profane Wishes tab

Built up like this:
Verse
Chugga
Verse
Chorus
Verse
Pre-Chorus
Chorus
Pre-break
Bridge
Break
The End


Verse:
e|-----------------------|
B|-----------------------|
G|-----------------------|
D|-4-4-4-4-7-------------|
A|-2-2-2-2-5-5-5-5-5-7---|
E|-----------3-3-3-3-5---|

Chugga:
e|-------------------|
B|-------------------|
G|-------------------|
D|-4-4-4-4-----------|
A|-2-2-2-2-7-7-7-7---|
E|---------5-5-5-5---|

Pre-Chorus

e|---------------------------|
B|---------------------------|
G|---------------------------|
D|-4-4-----4-----------------|
A|-2-2-0-2-2-0-2-0-2-0-2-0-2-|
E|---------------------------|

Chorus:
e|------------------------------------------------------------------------|
B|------------------------------------------------------------------------|
G|------------------------------------------------------------------------|
D|-7-7-7-7-----------------4-4-----------4-----7-7-7-7--------------------|
A|-5-5-5-5-7-7-7-7-5-5-5-5-2-2-2-5-0-5-5-2-7-7-5-5-5-5-7-7-7-7-5-5-5-5----|
E|---------5-5-5-5-3-3-3-3-----------3-3---5-5---------5-5-5-5-3-3-3-3----|

Pre-break(after second chorus )1,25:
e|-------------|
B|-------------|
G|-------------|
D|-------------|
A|-5--4--5--7--|
E|-3--2--3--5--|

Bridge:
e|-----------------------------|
B|-----------------------------|
G|-----------------------------|
D|-4--4-7--7-------------------|
A|-2--2-5--5-7--7-9--9-5--5-7--|
E|-----------5--5-7--7-3--3-5--|

Break:
e|--------------------|
B|--------------------|
G|--------------------|
D|-4-4-7-7------------|
A|-2-2-5-5-7-5-7-5-7--|
E|---------5-3-5-3-5--|
Before the last chorus just keep on pumpin on -7--
                                              -5--
The end:
A---------7-5-7-5-7-5-7-5-7-4-|
E---------5-3-5-3-5-3-5-3-5-2-|

There is also a second guitar, but thats a little bit tricky to "ear-out".
Comments and congrats: jonnyglades@hotmail.com
Tap to rate this tab
# A B C D E F G H I J K L M N O P Q R S T U V W X Y Z