Song name
# A B C D E F G H I J K L M N O P Q R S T U V W X Y Z

Amusement Parks On Fire - Venosa chords

Highlighted       Show chord diagrams
Venosa
by Amusement Parks on Fire
Tabbed by Dan Weissman

This is the basic breakdown of the chords.


Intro:

   E  Emaj7  *  Aadd9

e--0----0----0----0-----------------------------|
B--0----0----0----0-----------------------------|
G--1----1----4----6-----------------------------|
D--2----1----6----7-----------------------------|
A--2----2----6----7-----------------------------|
E--0----0----4----5-----------------------------|

*Not quite sure what this chord is, I've looked it up and gotten Emaj7, but it's
slightly different from the Emaj7 chord that comes before it.

First part of verse:

   E  Emaj7 Gbm11 Aadd9

e--0----0----0----0-----------------------------|
B--0----0----0----0-----------------------------|
G--1----1----2----6-----------------------------|
D--2----1----4----7-----------------------------|
A--2----2----4----7-----------------------------|
E--0----0----2----5-----------------------------|


Second Part (0:35):

   Gbm11  Emaj7(?)  Aadd9

e----0------0--------0-----------------------------|
B----0------0--------0-----------------------------|
G----2------4--------6-----------------------------|
D----4--X2--6--------7-----------------------------|
A----4------6--------7-----------------------------|
E----2------4--------5-----------------------------|

I think it pretty much just kinda repeats from there.  Let me know if there are any
parts I missed.  This is only my second tab so comments and suggestions are welcome!

Also I'm not 100% sure that playing the B and e strings open for all the chords is right
- it sounds like there's something extra going on in the song and I figured that it fit
in, but playing the power chord versions (just the 6th, 5th and 4th strings) with enough 
distortion and overdrive should sound good too.

If you're having trouble playing the Gbm11 and Emaj7(version 2) chords, I recommend
using your thumb on the 6th string, otherwise you can omit that string and just play the
last five strings.
Tap to rate this tab
 
# A B C D E F G H I J K L M N O P Q R S T U V W X Y Z