Song name
# A B C D E F G H I J K L M N O P Q R S T U V W X Y Z

Amy Can Flyy - Letting Go Of The Monster tab

-------------------------------------------------------------------------------
			     Letting Go of the Monster - Amy Can Flyy
-------------------------------------------------------------------------------
Tabbed by: Chantz Hale
Email: chantzhale@me.com

Tuning: Drop D

Visit their official myspace at: http://www.myspace.com/amycanflyy

This is my first tab, so give meh a break. This is their new song, and is super easy. Enjoy :)


INTRO:
e|---------------------------------------------------------------------------------------|
B|---------------------------------------------------------------------------------------|
G|---------------------------------------------------------------------------------------|
D|---12-12-12-12p 0----------------------------------------------------------------------|
A|---12-12-12-12p 0----------------------------------------------------------------------|
D|---12-12-12-12p 0----------------------------------------------------------------------|

e|------------------------------------------------------------------------------------|
B|------------------------------------------------------------------------------------|
G|---------------------* * *----------------------------------------------------------|
D|---9---5---7---------0-0-0--------0-------------------------------------------------|
A|---9---5---7---------0-0-0--------0-------------------------------------------------|
D|---9---5---7---------0-0-0--------0-------------------------------------------------|


VERSE: (Palm mute 1/8th notes the whole verse)
e|-------------------------------------------------------------------------------|
B|-------------------------------------------------------------------------------|
G|----*--------------------------------------------------------------------------|
D|---12--------------------------------------------------------------------------|
A|---12--------------------------------------------------------------------------|
D|---12--------------------------------------------------------------------------|


CHORUS: (Figure out strum pattern)
e|--------------------------------------------|
B|--------------------------------------------|
G|--------------------------------------------|
D|---12----5----12----7----9----5----12----7--|
A|---12----5----12----7----9----5----12----7--|
D|---12----5----12----7----9----5----12----7--|

e|----------------------------------------|
B|----------------------------------------|
G|----------------------------------------|
D|---9999-7-5--------7777-4-5----------7--|
A|---9999-7-5--------7777-4-5----------7--|
D|---9999-7-5--------7777-4-5----------7--|

VERSE: (Palm mute 1/8th notes the whole verse)
e|-------------------------------------------------------------------------------|
B|-------------------------------------------------------------------------------|
G|----*--------------------------------------------------------------------------|
D|---12--------------------------------------------------------------------------|
A|---12--------------------------------------------------------------------------|
D|---12--------------------------------------------------------------------------|

CHORUS: (Figure out strum pattern)
e|--------------------------------------------|
B|--------------------------------------------|
G|--------------------------------------------|
D|---12----5----12----7----9----5----12----7--|
A|---12----5----12----7----9----5----12----7--|
D|---12----5----12----7----9----5----12----7--|

e|----------------------------------------|
B|----------------------------------------|
G|----------------------------------------|
D|---9999-7-5--------7777-4-5----------7--|
A|---9999-7-5--------7777-4-5----------7--|
D|---9999-7-5--------7777-4-5----------7--|

BRIDGE: (Figure out strum pattern)
e|---------------------------------------------------------------------------------|
B|---------------------------------------------------------------------------------|
G|---11---------16-------11------14------------------------------------------------|
D|---------------------------------------------------------------------------| x 2-|
A|---9----------14-------16------12------------------------------------------------|
E|---------------------------------------------------------------------------------|

e|---------------------------------------------------|
B|---------------------------------------------------|
G|---------------------------------------------------|
D|---9999-7-5--------7777-4-5----------7-------xxxx--|
A|---9999-7-5--------7777-4-5----------7-------xxxx--|
D|---9999-7-5--------7777-4-5----------7-------xxxx--|

CHORUS: (Figure out strum pattern)
e|----------------------------------------------------------------------------------------------|
B|----------------------------------------------------------------------------------------------|
G|----------------------------------------------------------------------------------------------|
D|---12----5----12----7----9----5----12----7---------------------------------------------| x 2--|
A|---12----5----12----7----9----5----12----7----------------------------------------------------|
D|---12----5----12----7----9----5----12----7----------------------------------------------------|

e|------------------------------------------------------------|
B|------------------------------------------------------------|
G|------------------------------------------------------------|
D|---9999-7-5--------7777-4-5----------7---------------12~~~--|
A|---9999-7-5--------7777-4-5----------7---------------12~~---|
D|---9999-7-5--------7777-4-5----------7---------------12~~---|


************************************

| /   slide up
| \   slide down
| h   hammer-on
| p   pull-off
| ~   vibrato
| +   harmonic
| x   Mute note
| b   Bend
| pb  Pre-bend
| br  Bend release
| pbr Pre-bend release
| brb Bend release bend

************************************
Tap to rate this tab
# A B C D E F G H I J K L M N O P Q R S T U V W X Y Z