Amy Can Flyy - Go Go Gadget Happy Heart tab

----------------------------------------------------------------------------
			     Go Go Gadget Happy Heart
----------------------------------------------------------------------------
Tabbed by: ryAn132
Email:

Tuning: Drop D

e|-----------------------------|
B|-----------------------------|
G|-------5--7------------------|
D|-5--9--5--7------------------|
A|-5--9--3--5------------------|
D|-5--9------------------------|

That is pretty much the only guitar part throughout the song,
its just repeated alot :)

Comments are welcome please rate =]
Tap to rate this tab
 
# A B C D E F G H I J K L M N O P Q R S T U V W X Y Z