Song name
# A B C D E F G H I J K L M N O P Q R S T U V W X Y Z

Amy Jo Johnson - Puddle Of Grace tab

This is pretty much what it sounds like i hope u enjoy it

   Figure  [Riff]

   C
E---------------------
B---------------------
G-----0---0----0---0--
D-------2--------2----
A---3--------3--------
E---------------------

   C/B Am
E---------------------
B---------------------
G-----0---0----0---0--
D-------0--------2----
A---2--------0--------
E---------------------

intro] is the riff...

[songs starts like this]:

have you...

E----------------------
B----------------------
G------0---0----0---0--
D--------2--------2----
A---3---------3--------
B----------------------

Play this song C then Am over and over, but then there are chords

Everything else is following the basic riff. And then in the chorus, the G chord
and the Am chords have no special figure, the chord is just broken. The C is
from the riff though... like this:

Tell me...

E----------------------
B----------------------
G------0---0----0---0--
D--------2--------2----
A---3---------3--------
B----------------------


C [from riff] G Am

... Tell me where do you do when all the diamonds have run dry?

Tell me, tell me how do you feel after bittersweet goodbyes

C [figure] G [broken chord] Am [broken chord]
Tap to rate this tab
# A B C D E F G H I J K L M N O P Q R S T U V W X Y Z