Song name
# A B C D E F G H I J K L M N O P Q R S T U V W X Y Z

Amy Macdonald - Poison Prince tab

-------------------------------------------------------------------------------
			     POISON PRINCE - Amy Macdonald
-------------------------------------------------------------------------------
Tabbed by: James
Email: jammedfool@hotmail.com


Standard tuning

Capo 1st fret


Enjoy :)


Intro:

   Am         C     F   E        Am     C       F   E(4 times as many bars as the other chords)

e|-------------7~/8---------12---7/8-------------------------------|
B|------------5----1/8/~9--------------------10\1~-----------------|
G|------------------------------------------------2/9~-------------|
D|-----------------------------------------------------------------|
A|-----------------------------------------------------------------|
E|-----------------------------------------------------------------|


^^^ on the last bar of the E chord, play heavier in downstrums ^^^


   Am                C           F               E

e|-----------------------------|-----------------------------------|
B|----1---1---1---1---1--1-----|--1---1---1---1---0-1-0------------|
G|------2---2--2--------2--2---|----2---2--2-----------------------|
D|-----------------------------|-----------------------------------|
A|-----------------------------|-----------------------------------|
E|-----------------------------|-----------------------------------|

   Am                C           F               E

e|-----------------------------|-------------------------------(4)-|
B|----1---1---1---1---1-3--/5--|--1---1---1---1---0-1-0------(1/5)-|
G|------2---2--2---------------|----2---2--2-----------------------|
D|-----------------------------|-----------------------------------|
A|-----------------------------|-----------------------------------|
E|-----------------------------|-----------------------------------|


During the verse:


e|---------------|
B|---------------|
G|--------0------|
D|-----0h2-2-----|
A|---------------|
E|---------------|

^^^ variations of this hammer-on are used on various chords
 while strumming, mainly on C, but playing them is up to you ^^^


Am, C, F, E (x2)
Am, C, F, E, E (reverse strokes)
Am, C, F, E 
Am, C, F, E, E


Solo/bridge:

   Am                C           F               E

e|-----------------------------|-----------------------------------|
B|----1---1---1---1---1--1-----|--1---1---1---1---0-1-0------------|
G|------2---2--2--------2--2---|----2---2--2-----------------------|
D|-----------------------------|-----------------------------------|
A|-----------------------------|-----------------------------------|
E|-----------------------------|-----------------------------------|

   Am                C           F               E

e|-----------------------------|-------------------------------(4)-|
B|----1---1---1---1---1-3--/5--|--1---1---1---1---0-1-0------(1/5)-|
G|------2---2--2---------------|----2---2--2-----------------------|
D|-----------------------------|-----------------------------------|
A|-----------------------------|-----------------------------------|
E|-----------------------------|-----------------------------------|

the next bit is a little different:

key: <-----------chords not played-------------->   
                                                    
      Am   C    F   E             Am   C    F   E    Am
tab:
e|-----------------------------|------/3~-0-1~-/4~--/5-------------|
B|--------/5~------------------|-----------------------------------|
G|----2~--------2~--/4\1~------|--2~-------------------------------|
D|-----------------------------|-----------------------------------|
A|-----------------------------|-----------------------------------|
E|-----------------------------|-----------------------------------|

C, F, E
Am, C, F, E, E


Solo/bridge:

   Am                C           F               E

e|-----------------------------|-----------------------------------|
B|----1---1---1---1---1--1-----|--1---1---1---1---0-1-0------------|
G|------2---2--2--------2--2---|----2---2--2-----------------------|
D|-----------------------------|-----------------------------------|
A|-----------------------------|-----------------------------------|
E|-----------------------------|-----------------------------------|

   Am                C           F               E

e|-----------------------------|-------------------------------(4)-|
B|----1---1---1---1---1-3--/5--|--1---1---1---1---0-1-0------(1/5)-|
G|------2---2--2---------------|----2---2--2-----------------------|
D|-----------------------------|-----------------------------------|
A|-----------------------------|-----------------------------------|
E|-----------------------------|-----------------------------------|

Am, C, F, E 
Am, C, F, E ..(rest).. end on E


Now a word from me:

Its pretty easy to get the lyrics elsewhere and you can tell the chord 
changes if you play along, so i havnt included them for neatness' sake.
Whether those picking parts are classed as solos or bridges i dont know, 
any insight would be useful and i apologize XD 
I've probably missed a few bits and some of the chords are most likely
played with hammer-ons and pull-offs, but experiment and leave a comment :)

Thanks, James
Tap to rate this tab
# A B C D E F G H I J K L M N O P Q R S T U V W X Y Z