Song name
# A B C D E F G H I J K L M N O P Q R S T U V W X Y Z

Amy Macdonald - Mr Rock N Roll tab

Hi, this is a great song-really catchy and not that hard! Great little number.
Hope you enjoy!
Song: Mr Rock and Roll
Artist: Amy MacDonald
Album: This is the life

Capo on 7th fret:
(Everything related to Capo)!

Intro: D                              Dsus4
      ----2----2-2-------2-2----2-----3----3-------------------------|
      ---3----3---3-----3---3----3-----3----3------------------------|
      --2----2-----2---2-----2----2-----2----2-----------------------|
      -0----0-------0-0-------0----0-----0----0----------------------|
      ---------------------------------------------------------------|
      ---------------------------------------------------------------|
       D5                             D                               X2
      ----0----0-0-------0-0----0-----2----2-------------------------|
      ---3----3---3-----3---3----3-----3----3------------------------|
      --2----2-----2---2-----2----2-----2----2-----------------------|
      -0----0-------0-0-------0----0-----0----0----------------------|
      ---------------------------------------------------------------|
      ---------------------------------------------------------------|

         D            Dsus4            D5              D
Verse 1: So called Mr Rock And Roll is dancing on his own again
         D              Dsus4            D5         D
         Talking on his phone again to someone who tells him that his
         G
         balance is low he's got no where to go he's on his own again

Intro: D                              Dsus4
      ----2----2-2-------2-2----2-----3----3-------------------------|
      ---3----3---3-----3---3----3-----3----3------------------------|
      --2----2-----2---2-----2----2-----2----2-----------------------|
      -0----0-------0-0-------0----0-----0----0----------------------|
      ---------------------------------------------------------------|
      ---------------------------------------------------------------|
       D5                             D
      ----0----0-0-------0-0----0-----2----2-------------------------|
      ---3----3---3-----3---3----3-----3----3------------------------|
      --2----2-----2---2-----2----2-----2----2-----------------------|
      -0----0-------0-0-------0----0-----0----0----------------------|
      ---------------------------------------------------------------|
      ---------------------------------------------------------------|

         D                  Dsus4       D5              D
Verse 2: Rock chick of the century is acting like she used to be
         D                    Dusu4         D5                 D
         Dancing like there's no one there before she never seemed to care
              G
         Now she doesn't dare it's so rock and roll to alone

Intro: D                              Dsus4
      ----2----2-2-------2-2----2-----3----3-------------------------|
      ---3----3---3-----3---3----3-----3----3------------------------|
      --2----2-----2---2-----2----2-----2----2-----------------------|
      -0----0-------0-0-------0----0-----0----0----------------------|
      ---------------------------------------------------------------|
      ---------------------------------------------------------------|
       D5                             D
      ----0----0-0-------0-0----0-----2----2-------------------------|
      ---3----3---3-----3---3----3-----3----3------------------------|
      --2----2-----2---2-----2----2-----2----2-----------------------|
      -0----0-------0-0-------0----0-----0----0----------------------|
      ---------------------------------------------------------------|
      ---------------------------------------------------------------|

                     A        Asus4
Chorus: And they'll meet one day
        A    Asus4
        Far away and say:
         Em     Em7             Em   Em7
        "I wish I was something more"
                    A         Asus4
        And they'll meet one day
        A    Asus4
        Far away and say:
        Em         Em/G    A [single strum]
        "I wish I knew you, I wish I knew you before"

Intro: D                              Dsus4
      ----2----2-2-------2-2----2-----3----3-------------------------|
      ---3----3---3-----3---3----3-----3----3------------------------|
      --2----2-----2---2-----2----2-----2----2-----------------------|
      -0----0-------0-0-------0----0-----0----0----------------------|
      ---------------------------------------------------------------|
      ---------------------------------------------------------------|
       D5                             D                               X2
      ----0----0-0-------0-0----0-----2----2-------------------------|
      ---3----3---3-----3---3----3-----3----3------------------------|
      --2----2-----2---2-----2----2-----2----2-----------------------|
      -0----0-------0-0-------0----0-----0----0----------------------|
      ---------------------------------------------------------------|
      ---------------------------------------------------------------|

         D               Dsus4            D5               D
Verse 3: Mrs Black and White she's never seen a shade of grey
                 D             Dsus4     D5         D
         Always something on her mind every single day
                       G
         But now shes lost her way, and where does she go from here

Intro: D                              Dsus4
      ----2----2-2-------2-2----2-----3----3-------------------------|
      ---3----3---3-----3---3----3-----3----3------------------------|
      --2----2-----2---2-----2----2-----2----2-----------------------|
      -0----0-------0-0-------0----0-----0----0----------------------|
      ---------------------------------------------------------------|
      ---------------------------------------------------------------|
       D5                             D
      ----0----0-0-------0-0----0-----2----2-------------------------|
      ---3----3---3-----3---3----3-----3----3------------------------|
      --2----2-----2---2-----2----2-----2----2-----------------------|
      -0----0-------0-0-------0----0-----0----0----------------------|
      ---------------------------------------------------------------|
      ---------------------------------------------------------------|

         D        Dsus4         D5               D
Verse 4: Mr Multicultural sees all that one can see
              D               Dsus4       D5          D
         Hes living through someone very different to me
                     G
         But now he wants to be free free so he can see

Intro: D                              Dsus4
      ----2----2-2-------2-2----2-----3----3-------------------------|
      ---3----3---3-----3---3----3-----3----3------------------------|
      --2----2-----2---2-----2----2-----2----2-----------------------|
      -0----0-------0-0-------0----0-----0----0----------------------|
      ---------------------------------------------------------------|
      ---------------------------------------------------------------|
       D5                             D
      ----0----0-0-------0-0----0-----2----2-------------------------|
      ---3----3---3-----3---3----3-----3----3------------------------|
      --2----2-----2---2-----2----2-----2----2-----------------------|
      -0----0-------0-0-------0----0-----0----0----------------------|
      ---------------------------------------------------------------|
      ---------------------------------------------------------------|

                  A        Asus4
Chorus: And they'll meet one day
        A    Asus4
        Far away and say:
         Em     Em7             Em   Em7
        "I wish I was something more"
                    A         Asus4
        And they'll meet one day
        A    Asus4
        Far away and say:
        Em        Em/G      A [single strum]
        "I wish I knew you, I wish I knew you before"

 Intro: D                              Dsus4
      ----2----2-2-------2-2----2-----3----3-------------------------|
      ---3----3---3-----3---3----3-----3----3------------------------|
      --2----2-----2---2-----2----2-----2----2-----------------------|
      -0----0-------0-0-------0----0-----0----0----------------------|
      ---------------------------------------------------------------|
      ---------------------------------------------------------------|
       D5                             D                               X2
      ----0----0-0-------0-0----0-----2----2-------------------------|
      ---3----3---3-----3---3----3-----3----3------------------------|
      --2----2-----2---2-----2----2-----2----2-----------------------|
      -0----0-------0-0-------0----0-----0----0----------------------|
      ---------------------------------------------------------------|
      ---------------------------------------------------------------|

                 Em         Em7         A    Asus4
Bridge: He says "I wish I knew you, I wish I met you
              G                     D   Dsus4
        When time was still on my side"
                  Em                    A
        She'll say "I wish I knew you, I wish I loved you
           G              A          Amsus4
        Before I was his bride"

             D              Dsus4           D5           D
Verse 5: And so they must depart too many more a broken heart
                   D             Dsus4        D5                   D
         But I've seen that all before in TV, books and film and more
                        G
         And there's a happy ending every single day

Intro: D                              Dsus4
      ----2----2-2-------2-2----2-----3----3-------------------------|
      ---3----3---3-----3---3----3-----3----3------------------------|
      --2----2-----2---2-----2----2-----2----2-----------------------|
      -0----0-------0-0-------0----0-----0----0----------------------|
      ---------------------------------------------------------------|
      ---------------------------------------------------------------|
       D5                             D
      ----0----0-0-------0-0----0-----2----2-------------------------|
      ---3----3---3-----3---3----3-----3----3------------------------|
      --2----2-----2---2-----2----2-----2----2-----------------------|
      -0----0-------0-0-------0----0-----0----0----------------------|
      ---------------------------------------------------------------|
      ---------------------------------------------------------------|

                 A        Asus4
Chorus: And they'll meet one day
        A    Asus4
        Far away and say:
         Em     Em7             Em   Em7
        "I wish I was something more"
                    A         Asus4
        And they'll meet one day
        A    Asus4
        Far away and say:
        Em        Em/G     A [single strum]
        "I wish I knew you, I wish I knew you before"

 Outro: D                              Dsus4
      ----2----2-2-------2-2----2-----3----3-------------------------|
      ---3----3---3-----3---3----3-----3----3------------------------|
      --2----2-----2---2-----2----2-----2----2-----------------------|
      -0----0-------0-0-------0----0-----0----0----------------------|
      ---------------------------------------------------------------|
      ---------------------------------------------------------------|
       D5                             D
      ----0----0-0-------0-0----0-----2----2-------------------------|
      ---3----3---3-----3---3----3-----3----3------------------------|
      --2----2-----2---2-----2----2-----2----2-----------------------|
      -0----0-------0-0-------0----0-----0----0----------------------|
      ---------------------------------------------------------------|
      ---------------------------------------------------------------|

       D                              Dsus4    D
      ----2----2-2-------2-2----2-----3----3--------2----------------|
      ---3----3---3-----3---3----3-----3----3------3-----------------|
      --2----2-----2---2-----2----2-----2----2----2------------------|
      -0----0-------0-0-------0----0-----0----0--0-------------------|
      ---------------------------------------------------------------|
      ---------------------------------------------------------------|

Please don't hesitate to rate or add comments and check out some of my other
stuff: John Lennon: Imagine
       Lily Allen: 22 (I made this one when I wasn't a member so it doesn't have my name on)!
       Fleetwood Mac: Dreams
       And I'm hoping to make many more.
       Thanks!
Tap to rate this tab
# A B C D E F G H I J K L M N O P Q R S T U V W X Y Z