Song name
# A B C D E F G H I J K L M N O P Q R S T U V W X Y Z

Amy Winehouse - Cherry tab

-------------------------------------------------------------------------------
			     Cherry - Ratatat
-------------------------------------------------------------------------------
Tabbed by:BunnyConnor[partially]
Email:BunnyBass@gmail.com

Tuning:standard 

sorry if i missed anything, email me if i did

--------------------------------------
sorry, i dont know who wrote it *no credit*

Guitar one
e----------------------------------------------|
B----------------------------------------------|
G-12--9-------------9--------------------------|  Keep repeating
D-------12--10--12------10--7--10--7-----------|
A----------------------------------------------|
E----------------------------------------------|
^not mine

Guitar two
e----------------|
B----------------|
G--10--7--10--7--|
D----------------|keep repeating
A----------------|
E----------------|
^not mine
--------------------------------------------

bass part, i dont have my bass with me though
e|-----------------------------|
B|-----------------------------|
G|----12--9--------------------|
D|-----------10----------------|
A|-----------------------------|
E|-----------------------------|



synth part i think, lots of sliding
its better to play it with one strum per part[when playing with the synth]
e|--------------|--------------|--------------|
B|--------------|--------------|--------------|
G|---12\9/12\9--|---12\9/12\7--|---12\9/12\5--|
D|--------------|--------------|--------------|
A|--------------|--------------|--------------|
E|--------------|--------------|--------------|
i didnt optimize playing[diff notes] because of the sliding

guitar 2[?]
e|-----------------|---------------|
B|-----------------|---------------|
G|---12-9-12-7\5---|---12-9-12-5---|
D|-----------------|---------------|
A|-----------------|---------------|
E|-----------------|---------------|


| /  slide up
| \  slide down
| h  hammer-on
| p  pull-off
| ~  vibrato
| +  harmonic
| x  Mute note
===============================================================================
Tap to rate this tab
# A B C D E F G H I J K L M N O P Q R S T U V W X Y Z