Song name
# A B C D E F G H I J K L M N O P Q R S T U V W X Y Z

Amy Winehouse - Back To Black tab

----------------------------------------------------
Back to Black/Valerie cover by Conor Maynard
(Original songs by Amy Winehouse)
-------------------------------------------------------------------------------
Tabbed by: Kiara
E-mail: catchafallingstarandputitinyourpocket@hotmail.com

Capo on the 3rd fret

Tuning: E A D G B e

Intro:

e|-------1--------------------------------------------------------------------|
B|---------------2------------3-------------------2---------------------------|
G|-----2-------0------------3-----------------2-------------------------------|
D|---0------------------------------------2-----------------------------------|
A|-------------------------1--------------------------------------------------|
E|------------3---------------------------------------------------------------|

e|------1--------1--------1--------1------------------------------------------|
B|--------3--------3---------3--------3------3--------3-------3------3--------|
G|----2--------2--------2--------2---------0---0----0---0---0---0---0--0------|
D|--0-------0---------0--------0----------------------------------------------|
A|----------------------------------------------------------------------------|
E|---------------------------------------3-------3---------3------3-----------|

e|------------------------------------------------------------------------------|
B|------3---------3-------3--------3---------2----------------------------------|
G|----3---3----3---3---3---3----3---3--------2----------------------------------|
D|-------------------------------------------2----------------------------------|
A|--1---------1-------1--------1------------------------------------------------|
E|------------------------------------------------------------------------------|

Verse 1 & 2:
He left no time to regret,
Kept his lips wet.
With his same old safe bet.
Me and my head high,
And my tears dry.
Go on without my guy.

You went back to what you knew
So far removed from all that we went through
And I tread a troubled track
My odds are stacked
I'll go back to black

e|-------1-------1-------1-------1--------------------------------------------|
B|-----3-------3-------3-------3--------3------3-----3-----3------------------|
G|---2-------2-------2-------2---------0------0-----0-----0-------------------|
D|-0-------0-------0-------0----------0------0-----0-----0--------------------|
A|----------------------------------------------------------------------------|
E|----------------------------------3------3------3----3----------------------|

e|----------------------------------------------------------------------------|
B|--------3-------3--------3-------3---------2------2-------2-------2---------|
G|------3------3---------3-------3---------2------2-------2--------2----------|
D|----0------0---------0-------0---------2------2-------2--------2------------|
A|--1-------1--------1-------1---------0-------0------0--------0--------------|
E|----------------------------------------------------------------------------|

Chorus (Strumming pattern: DDUDUDU)

(Dm)
We only said good-bye with words,
(Gm)
I died a hundred times.
(Bb)
You go back to her,
(A)
And I go back to...


Capo moved up to 5th fret (Valerie)

Intro: C (powerchord), A (Barrechord)

Verse 1:

(C)
Well, sometimes I go out by myself.
                         (A)
And I look across the water.
      (C)
And I think of all the things that you're doing,
                            (A)
And in my head I paint a picture.

Chorus:

(F)
Since i've come on home,
            (Amin)
While my body's being a mess.
      (F)
And I miss your ginger hair,
        (Amin)
And the way you like to dress.

(F)
Won't you come on over?
(D min)
Stop making a fool out of me,
(G play it once then stop.)
Why don't you come on over, Valerie?


Capo moves down to 3rd fret.


(C)         (D min)
Valerie, Oh Valerie.

Bridge:

(Palm muting)
(C)
Well, sometimes I go out by myself.
                      (D min)
And I look across the water.
      (C)
And I think of all the things that you're doing,
                          (D min)
And in my head I paint a picture.

Chorus:

(F)
Since i've come on home,
         (A min)
While my body's being a mess.
      (F)
And I miss your ginger hair,
        (A min)
And the way you like to dress.

(F)
Won't you come on over?
(D min)
Stop making a fool out of me,
(G once.)
Why don't you come on over, Valerie?
Tap to rate this tab
# A B C D E F G H I J K L M N O P Q R S T U V W X Y Z