Song name
# A B C D E F G H I J K L M N O P Q R S T U V W X Y Z

Amy Winehouse - Mr Magic Through The Smoke tab

Amy Winehouse – Mr Magic (Through the Smoke)

This song appears on the end of the trak amy amy amy - outro

Need to fill it with a few slaps n random notes because when playin it without the drums it seems pretty bare
i havent labelled all of the chords coz i duno what they are lol if any1 else does please let me know!
enjoy!



Intro                 F9
E------------------------------------------|
B---------------------8--x--8--x--8--------|
G---8--x--8-----8-----8--x--8--x--8--------|
D---8--x--8-----8-----7--x--7--x--7----x4--|
A--10--x-10-x--10--x--8--x--8--x--8--------|
E------------------------------------------|

Verses
E------------------------------------|---------------------------------|
B---------------------8--x--8--x--8--|------------4--------------------|
G---8--x--8-----8-----8--x--8--x--8--|------------4--------8-x-8--x-8--|
D---8--x--8-----8-----7--x--7--x--7--|---------------------8-x-8—-x-8--|
A--10--x-10-x--10--x--8--x--8--x--8--|----------2---------10-x-10-x-10-|
E------------------------------------|--6------------------------------|
     V1  Everyday I  see you          my hands were made for   you
     V2  Without you im misery        blue is  my new   green
     V3  Layin on my bed……


       Bb9   Eb9
E---------------------3---x--------------------------------------------|
B-------------6---x---4---x-----4------------------------8-x-8-x-8-----|
G-------6--x--6---x---5---x-----4--------8-x--8-x--8-----8-x-8-x-8-----|
D-------6--x--x---x---x---x--------------8-x--8-x--8-----7-x-7-x-7-----|
A-------x--x--6---x---6---x-------------10-x-10-x-10--x--8-x-8-x-8-----|
E-------6--x-----------------------------------------------------------|
And you always give me stress free point of view… pick you up at the school
All the songs soun better when your next to me… coz you come naturally


Chorus
E-----------------------------------|----------------------------------|
B--3----------3------------3--------|-----------------------intro riff-|
G--3----------5------------3--------|------------------------repeated--|
D--5----------6------------5----x4--|--5-5-5-----------------again over|
A-----------------------------------|--5-5-5------------------sax solo-|
E-----------------------------------|----------------------------------|
  Mr magic (take a token)    Mr Magic…            I see you through the smoke
Tap to rate this tab
# A B C D E F G H I J K L M N O P Q R S T U V W X Y Z