Song name
# A B C D E F G H I J K L M N O P Q R S T U V W X Y Z

Amy Winehouse - You Should Be Stronger Than Me tab

Highlighted       Show chord diagrams
This is a really pretty song that should be played with your fingers for authenticity, 
should play around with strumming patterns to make it more interesting too. if you have 
improvements let me know at jack_herbert54@msn.com enjoy!

   Gm7   A7 Dm  Just repeat these chords throughout the verse

e --3-------5---|
b --3---6---6---|
g --3---6---7---|
d --3---5---7---|
a --5---8---5---|
E --3---5-------|

    F6   G9  repeat twice for the chorus

e --10---10---|
b --10---10---|
g --10---10---|
d --10---9----|
a --8----10---|
E ------------|
Tap to rate this tab
 
# A B C D E F G H I J K L M N O P Q R S T U V W X Y Z