Song name
# A B C D E F G H I J K L M N O P Q R S T U V W X Y Z

Amyst - Well Play With Fire Ants Until The Water Floods The Mound tab

We’ll Play With Fire Ants Until The Water Floods The Mound
Amyst

http://www.facebook.com/amystmusic

TUNING: B-F#-B-G-B-E


Intro X2

E |-----------------------------------------------------------------|
B |-----------------------------------------------------------------|
G |-----------------------------------------------------------------|
B |-0000-0-000-000-000-00-000-00-0-0000-0-000-000-000-00-00-000-0---|
F#|-0000-0-000-000-000-00-000-00-0-0000-0-000-000-000-00-00-000-0---|
B |-0000-0-000-000-000-00-000-00-0-0000-0-000-000-000-00-00-000-0---|


Verse

E |--------------------------------------|
B |--------------------------------------|
G |--------------------------------------|
B |-0---0-0-0---0-0-0---0-0-0------------|
F#|-0---0-0-0---0-0-0---0-0-0------------|
B |-0---0-0-0---0-0-0---0-0-0------------|

E |-----------------------------------------------------------------|
B |-----------------------------------------------------------------|
G |-----------------------------------------------------------------|
B |-0000-0-000-000-000-00-000-00-0-0000-0-000-000-000-00-00-000-0---|
F#|-0000-0-000-000-000-00-000-00-0-0000-0-000-000-000-00-00-000-0---|
B |-0000-0-000-000-000-00-000-00-0-0000-0-000-000-000-00-00-000-0---|

Chorus

E |------------------------------------------------------------|
B |------------------------------------------------------------|
G |------------------------------------------------------------|
B |-9-9-9-9-9-9-9-9-9-9-9-9-9-9-9-9-12-12-12-12-12-12-12-12-12-|
F#|-7-7-7-7-7-7-7-7-7-7-7-7-7-7-7-7-10-10-10-10-10-10-10-10-10-|
B |-7-7-7-7-7-7-7-7-7-7-7-7-7-7-7-7-10-10-10-10-10-10-10-10-10-|

E |------------------------------------------------------------|
B |------------------------------------------------------------|
G |------------------------------------------------------------|
B |-12-12-12-12-12-12-12-5-5-5-5-5-5-5-5-5-5-5-5-5-5-5-5-5-5-5-|
F#|-10-10-10-10-10-10-10-2-2-2-2-2-2-2-2-2-2-2-2-2-2-2-2-2-2-2-|
B |-10-10-10-10-10-10-10-2-2-2-2-2-2-2-2-2-2-2-2-2-2-2-2-2-2-2-|

E |------------------------------------------------------------|
B |------------------------------------------------------------|
G |------------------------------------------------------------|
B |-5-5-5-5-5-5-5-5-5-5-5-5-5----------------------------------|
F#|-2-2-2-2-2-2-2-2-2-2-2-2-2----------------------------------|
B |-2-2-2-2-2-2-2-2-2-2-2-2-2----------------------------------|



Verse 2

E |-------------------------------------|
B |-------------------------------------|
G |-------------------------------------|
B |-0---0-0-0---0-0-0---0-0-0---000-000-|
F#|-0---0-0-0---0-0-0---0-0-0---000-000-|
B |-0---0-0-0---0-0-0---0-0-0---000-000-|

E |--------------------------------------|
B |--------------------------------------|
G |--------------------------------------|
B |-0---0-0-0---0-0-0---0-0-0------------|
F#|-0---0-0-0---0-0-0---0-0-0------------|
B |-0---0-0-0---0-0-0---0-0-0------------|

E |-----------------------------------------------------------------|
B |-----------------------------------------------------------------|
G |-----------------------------------------------------------------|
B |-0000-0-000-000-000-00-000-00-0-0000-0-000-000-000-00-00-000-0---|
F#|-0000-0-000-000-000-00-000-00-0-0000-0-000-000-000-00-00-000-0---|
B |-0000-0-000-000-000-00-000-00-0-0000-0-000-000-000-00-00-000-0---|

E |-----------------------------------------------------------------|
B |-----------------------------------------------------------------|
G |-----------------------------------------------------------------|
B |-0000-------0000----0000-----------------------------------------|
F#|-0000-------0000----0000-----------------------------------------|
B |-0000-------0000----0000-----------------------------------------|


E |-----------------------------------------------------------------|
B |-----------------------------------------------------------------|
G |-----------------------------------------------------------------|
B |-0-0-0-0-0-0-0-0-0-0-0-0-0-0-0-0-0-0-0-0-0-0-0-0-0-0-0-0-0-0-0-0-|
F#|-0-0-0-0-0-0-0-0-0-0-0-0-0-0-0-0-0-0-0-0-0-0-0-0-0-0-0-0-0-0-0-0-|
B |-0-0-0-0-0-0-0-0-0-0-0-0-0-0-0-0-0-0-0-0-0-0-0-0-0-0-0-0-0-0-0-0-|


E |-----------------------------------------------------------------|
B |-----------------------------------------------------------------|
G |-----------------------------------------------------------------|
B |-10-10-10-10-10-10-10-10-8-8-8-8-8-8-8-8-0-0-0-0-0-0-0-0-0-0-0-0-|
F#|-10-10-10-10-10-10-10-10-8-8-8-8-8-8-8-8-0-0-0-0-0-0-0-0-0-0-0-0-|
B |-10-10-10-10-10-10-10-10-8-8-8-8-8-8-8-8-0-0-0-0-0-0-0-0-0-0-0-0-|


Chorus

E |------------------------------------------------------------|
B |------------------------------------------------------------|
G |------------------------------------------------------------|
B |-9-9-9-9-9-9-9-9-9-9-9-9-9-9-9-9-12-12-12-12-12-12-12-12-12-|
F#|-7-7-7-7-7-7-7-7-7-7-7-7-7-7-7-7-10-10-10-10-10-10-10-10-10-|
B |-7-7-7-7-7-7-7-7-7-7-7-7-7-7-7-7-10-10-10-10-10-10-10-10-10-|

E |------------------------------------------------------------|
B |------------------------------------------------------------|
G |------------------------------------------------------------|
B |-12-12-12-12-12-12-12-5-5-5-5-5-5-5-5-5-5-5-5-5-5-5-5-5-5-5-|
F#|-10-10-10-10-10-10-10-2-2-2-2-2-2-2-2-2-2-2-2-2-2-2-2-2-2-2-|
B |-10-10-10-10-10-10-10-2-2-2-2-2-2-2-2-2-2-2-2-2-2-2-2-2-2-2-|

E |------------------------------------------------------------|
B |------------------------------------------------------------|
G |------------------------------------------------------------|
B |-5-5-5-5-5-5-5-5-5-5-5-5-5----------------------------------|
F#|-2-2-2-2-2-2-2-2-2-2-2-2-2----------------------------------|
B |-2-2-2-2-2-2-2-2-2-2-2-2-2----------------------------------|


Techno Dance Part X2

E |-----------------------------------------------------------------|
B |-----------------------------------------------------------------|
G |-----------------------------------------------------------------|
B |-0-0-0-0-0-0-0-0-0-0-0-0-0-0-0-0-8-8-8-8-8-8-8-8-3-3-3-3-3-5-5-5-|
F#|-0-0-0-0-0-0-0-0-0-0-0-0-0-0-0-0-8-8-8-8-8-8-8-8-3-3-3-3-3-5-5-5-|
B |-0-0-0-0-0-0-0-0-0-0-0-0-0-0-0-0-8-8-8-8-8-8-8-8-3-3-3-3-3-5-5-5-|


Breakdown


E |--------------------------------|
B |--------------------------------|
G |--------------------------------|
B |-000000000-00-0-000-000--00-00--|
F#|-000000000-00-0-000-000--00-00--|
B |-000000000-00-0-000-000--00-00--|

E |--------------------------------|
B |--------------------------------|
G |--------------------------------|
B |-000000000-00-0-000-000-000-000-|
F#|-000000000-00-0-000-000-000-000-|
B |-000000000-00-0-000-000-000-000-|


E |----------------------------------------------------------|
B |----------------------------------------------------------|
G |----------------------------------------------------------|
B |-0-0-0-0-0-000-0-000-000-00-00-0-0-0-000-0-0-0-0--00-00---|
F#|-0-0-0-0-0-000-0-000-000-00-00-0-0-0-000-0-0-0-0--00-00---|
B |-1-1-1-1-1-000-0-000-000-00-00-0-0-0-000-0-0-0-0--00-00---|
Tap to rate this tab
 
# A B C D E F G H I J K L M N O P Q R S T U V W X Y Z