Song name
# A B C D E F G H I J K L M N O P Q R S T U V W X Y Z

An Albatross - I Am The Lazer Viking tab

------------
I Am The Lazer Viking - An Albatross
------------

Wow. There went 5 minutes.

Key
__++__
h--hammer on
p--pull off
t--tremolo pick
__++__

                                  
|-------------------------------------------------|
|------------1-1-1t-3p1-4-4t-3p1------------------|
|-------0h1h2-------------------2-----------------| 4x
|--0h1h2-------------------------2p1p0------------|
|-0-----------------------------------3p2p0-3p2p0-|
|-------------------------------------------------|



|----------------------------------------------5-|
|------------1-1-1t-3p1-4-4t-3p1-4t-3p1-4t-3p1---|
|-------0h1h2-------------------2------2------2--|
|--0h1h2-----------------------------------------|
|-0----------------------------------------------|
|------------------------------------------------|



|-5-|
|-3-|
|-2-|
|---| 
|---|
|---|
played however many times along with effects on guitar along with keyboard

I AM THE LAZER VIKING!!!!






::Lyrics::

 
Baby, this rock and roll,
Baby, will save your soul.

I AM THE LAZER VIKING.  
Tap to rate this tab
 
# A B C D E F G H I J K L M N O P Q R S T U V W X Y Z