Song name
# A B C D E F G H I J K L M N O P Q R S T U V W X Y Z

An Angle - Green Water tab

“Green Water”
An Angle


This is the basic chord and lead layout for the song “Green Water” by An Angle.  There
various other piano leads and embellishments throughout the song, but most of them follow
general chord changes, so I didn’t tab them out.  Any questions or comments, e-mail me 
kkoziol@oswego.edu

Rhythm Guitar for Intro/Verse/Chorus:
    G           E           C     D     G
    *  *  *  *  *  *  *  *  *  *  *  *  *  *  *  *
e|--3--3--3--3--------------------------3--3--3--3-------------------------|
B|--3--3--3--3--9--9--9--9--5--5--7--7--3--3--3--3-------------------------|
G|--4--4--4--4--9--9--9--9--5--5--7--7--4--4--4--4-------------------------|
D|--5--5--5--5--9--9--9--9--5--5--7--7--5--5--5--5-------------------------|
A|--5--5--5--5--7--7--7--7--3--3--5--5--5--5--5--5-------------------------|
E|--3--3--3--3--------------------------3--3--3--3-------------------------|

* = Staccato
Intro Solo:

e|-------------------------------------------------------------------------|
B|-------------------------------------------------------------------------|
G|-12-12-12-11-12-11-11--9--------------9---7----------------16brbrbr-14-12|
D|-----------------------------5h6-5h6----------7h9-7---5------------------|
A|-------------------------------------------------------------------------|
E|-------------------------------------------------------------------------|

e|-------------------------------------------------------------------------|
B|-------------------------------------------------------------------------|
G|-12-12-12-11-12-11-11--9--------------9---7-------------------12---------|
D|-----------------------------5h6-5h6----------7h9-7---5----14----14-12---|
A|-----------------------------------------------------------------------14|
E|-------------------------------------------------------------------------|


Horn Solo:
e|-------------------------------------------------------------------------|
B|-12-12-12-1010-10---12-10-12-10-9---5--9---------------------------------|
G|--------------------------------------------9--9--9--7----7--9---12--12--|
D|-------------------------------------------------------------------------|
A|-------------------------------------------------------------------------|
E|-------------------------------------------------------------------------|

e|-----------------------------12--------7---------------------------------|
B|-12-12-12-1010-10---12-10-12----12-10--9---------------------------------|
G|--------------------------------------------9--9--9--7----7--9---12--12--|
D|-------------------------------------------------------------------------|
A|-------------------------------------------------------------------------|
E|-------------------------------------------------------------------------|


Pre-Chorus:
    E           C           G           Am                     C7
e|--------------------------3--3--3--3--5--5--5--5----|------------|
B|--9--9--9--9--5--5--5--5--3--3--3--3--5--5--5--5----|--------5---|
G|--9--9--9--9--5--5--5--5--4--4--4--4--5--5--5--5----|--------3---|
D|--9--9--9--9--5--5--5--5--5--5--5--5--7--7--7--7----|--------5---|
A|--7--7--7--7--3--3--3--3--5--5--5--5--7--7--7--7----|--------3---|
E|--------------------------3--3--3--3--5--5--5--5----|------------|


Fill 1:                       Fill 2:
e|----12-10-------------------|-----12-------------------------------------|
B|-----------------12h13-x-12-|-/12----10-8--------------------------------|
G|-12-----------12------------|-------------9-7----------------------------|
D|-----------14---------------|--------------------------------------------|
A|----------------------------|--------------------------------------------|
E|----------------------------|--------------------------------------------|


Song Structure:

Intro x2          with Intro Solo
Verse x4
Verse x2          with Horn Solo
Verse x4          with Intro Solo playing quietly in the background
Pre-Chorus x2     and end on C7
Chorus x2
Chorus x2         with Horn Solo and Fills 1 and 2 in between
Pre-Chorus x2     play single chords and end on C7
Chorus x6
End on G
Tap to rate this tab
# A B C D E F G H I J K L M N O P Q R S T U V W X Y Z