Song name
# A B C D E F G H I J K L M N O P Q R S T U V W X Y Z

An Cafe - The Hero Without A Name tab

Help us improve GuitareTab! Take a short survey!
I Know this Tab is Crap but Eh anyways this is just the intro for now I'm tired I will 
the rest later on -.-

1-------------------------------------------------|
2-------------------------------------------------|
3---------7-------9-s11-9-------7-------9-7-------|
4---9-7-9-7-9-7-9-9-s11-9-9-7-9-7-9-7-9-9-7-7-8-9-|
5---9-7-9---9-7-9---------9-7-9---9-7-9-----7-8-9-|
6-------------------------------------------------|


1-------------------------------------|
2-------------------------------------|
3---------7-------9-s11-9-------7-----|
4---9-7-9-7-9-7-9-9-s11-9-9-7-9-7-9-7-|
5---9-7-9---9-7-9---------9-7-9---9-7-|
6-------------------------------------|

1------------------------------------------------|
2------------------------------------------------|
3-9-9-9-7------7-7-7-7-----------------7-7-7-6-7-|
4-9-9-9-7------7-7-7-7-5-5-5-5-7-7-7-7-7-7-7-6-7-|
5-7-7-7-5------5-5-5-5-5-5-5-5-7-7-7-7-5-5-5-4-5-|
6----------------------3-3-3-3-5-5-5-5-----------|

1-----------------------------------|
2-----------------------------------|
3-7-7-7-7-5-5-5-5---------7-7-7-6-7-|
4-7-7-7-7-5-5-5-5-7-7-7-7-7-7-7-6-7-|
5-5-5-5-5-5-5-5-5-7-7-7-7-5-5-5-4-5-|
6---------3-3-3-3-5-5-5-5-----------|


1-------------------------------------------------|
2-------------------------------------------------|
3---------7-------9-s11-9-------7-------9-7-------|
4---9-7-9-7-9-7-9-9-s11-9-9-7-9-7-9-7-9-9-7-7-8-9-|
5---9-7-9---9-7-9---------9-7-9---9-7-9-----7-8-9-|
6-------------------------------------------------|


1-------------------------------------|
2-------------------------------------|
3---------7-------9-s11-9-------7-----|
4---9-7-9-7-9-7-9-9-s11-9-9-7-9-7-9-7-|
5---9-7-9---9-7-9---------9-7-9---9-7-|
6-------------------------------------|
Related for The Hero Without A Name tab