Song name
# A B C D E F G H I J K L M N O P Q R S T U V W X Y Z

An Cafe - Pipopapo Telepathy tab

Song: "Pipopapo Telepathy"
Artist: An Cafe
Album: Magnya Carta

Tabbed by: Aaron Jutila
email: jutila91@yahoo.com

e|1414141412--12----------12------|14--12--------------------------|
B|----------------14--14----------|--------14--12------12--14------|
G|--------------------------------|----------------14--------------|
D|--------------------------------|--------------------------------|
A|--------------------------------|--------------------------------|
E|--------------------------------|--------------------------------|
  1 e & a 2 e & a 3 e & a 4 e & a  1 e & a 2 e & a 3 e & a 4 e & a

e|1414141412--12----------12------|14--12--14--16--17--16--14--12--|
B|----------------14--14----------|--------------------------------|
G|--------------------------------|--------------------------------|
D|--------------------------------|--------------------------------|
A|--------------------------------|--------------------------------|
E|--------------------------------|--------------------------------|
  1 e & a 2 e & a 3 e & a 4 e & a  1 e & a 2 e & a 3 e & a 4 e & a

e|1414141412--12----------12------|14--12--------------------------|
B|----------------14--14----------|--------14--12------12--14------|
G|--------------------------------|----------------14--------------|
D|--------------------------------|--------------------------------|
A|--------------------------------|--------------------------------|
E|--------------------------------|--------------------------------|
  1 e & a 2 e & a 3 e & a 4 e & a  1 e & a 2 e & a 3 e & a 4 e & a

e|1414141412--12----------12------|14--12--14--16--17--16--14--12--|
B|----------------14--14----------|--------------------------------|
G|--------------------------------|--------------------------------|
D|--------------------------------|--------------------------------|
A|--------------------------------|--------------------------------|
E|--------------------------------|--------------------------------|
  1 e & a 2 e & a 3 e & a 4 e & a  1 e & a 2 e & a 3 e & a 4 e & a


That's it, nice, simple, fun solo. Might tab the whole song at some point if I'm not 
too lazy after finals.

Nyappy! o(≧∀≦)o
Tap to rate this tab
# A B C D E F G H I J K L M N O P Q R S T U V W X Y Z