Song name
# A B C D E F G H I J K L M N O P Q R S T U V W X Y Z

An Cafe - Odoru Meruhen Tokei tab

Tabs by me :D

Part I
E|--------------------------------------|
B|--------------------------------------|
G|4----7----4----7----4----7----4----7--|
D|4----7----4----7----4----7----4----7--|
A|2----5----2----5----2----5----2----5--|
E|--------------------------------------|

Part II                x3
E|--------------------|------------|
B|--------------------|------------|
G|--------------------|------------|
D|2-------22232223----|2-------2223|
A|2-------22232223----|2-------2223|
E|0-------0001000-----|0-------0001|

Part III               x2
E|----- -------- -----|
B|----10-7-----10-9-7-|
G|7-9-9 -6-7-9-9 -8-6-|
D|7-9-7 -4-7-9-7 -6-4-|
A|5-7-- ---5-7-- -----|
E|----- --------------|

Part VI    x4
E|--------|
B|--------|
G|7779997-|
D|7779997-|
A|5557775-|
E|--------|

Part I
Part II
Part III

Part V
E|------------------------|
B|3/10-5/12-7/14----------|
G|---------------14-13-11-|
D|------------------------|
A|------------------------|
E|------------------------|

Part II
Part III

Part V
E|---------------------------|
B|3/10-5/12-7/14-------------|
G|---------------14-13-11-9-7|
D|---------------------------|
A|---------------------------|
E|---------------------------|


is more easy play it with the song ;D

Tap to rate this tab
# A B C D E F G H I J K L M N O P Q R S T U V W X Y Z