Song name
# A B C D E F G H I J K L M N O P Q R S T U V W X Y Z

An Cafe - Takaido tab

Takaido BY An Cafe                  
Standard Tuning

This song is the easiest of an cafe very good for beginners cafekos XD
For more experienced is very good for improvise
Any questions my email is watameyue@hotmail.es

^ = Bend         x = mute note         h = hammer-on         ~ = vibrato       PM... = palm mute

Intro,Verse
e|---------------------|----------------------|----------------------|----------------------|
B|---------------------|----------------------|----------------------|----------------------|
G|---------------------|----------------------|----------------------|----------------------|
D|--2----2----2----2---|----------------------|----------------------|----------------------|
A|--2----2----2----2---|-----------------2h3--|-----------------2h3--|-----------------2h3--|
E|--0----0----0----0---|--00--00--00--00------|--00--00--00--00------|--00--00--00--00------|
                        PM... ... ... ...        ... ... ... ...        ... ... ... ...
 
Chorus
e|----------------------|-------|-------|-------|-------------------------------------------|
B|----------------------|-------|-------|-------|-------------------------------------------|
G|-----------------444--|--444--|--444--|--444--|-------------------------------------------|
D|-----------------444--|--444--|--444--|--444--|--- Repeat this 8 times--------------------|
A|-----------------222--|--222--|--222--|--222--|-------------------------------------------|
E|--00--00--00--00------|-------|-------|-------|-------------------------------------------|
PM  ... ... ... ... 

END 2:32
e|----------------------------|
B|-----------3-------------3--|
G|--4-4-4-4--4------4/7/4--4--|
D|--4-4-4-4--4------4/7/4--4--|
A|--2-2-2-2--2------2/5/2--2--|
E|----------------------------|
Tap to rate this tab
 
# A B C D E F G H I J K L M N O P Q R S T U V W X Y Z