Song name
# A B C D E F G H I J K L M N O P Q R S T U V W X Y Z

An Early Ending - Harder To Be Acoustic tab

http://www.facebook.com/aeepa?sk=info

CAPO 2ND FRET

VERSE

E --------------------------------------------------------------------|
B --------3----------------3----------------3-------------------------|
G --0---0---0---0----0---0---0---0----0---0---0---0----0---0----0---0-|
D ----4-------4--------4-------4--------4-------4--------4--------4---|
A --------------------------------------------------------------------|
D 2----------------2----------------2----------------2--------0-------|

E --------------------------------------------------------------------|
B --------3----------------3----------------3-------------------------|
G --0---0---0---0----0---0---0---0----0---0---0---0----0---0----0---0-|
D ----4-------4--------4-------4--------4-------4--------4--------4---|
A 3----------------3----------------3----------------3----------------|
D ------------------------------------------------------------0-------|

CHORUS

E --------------------------------------------------------------------|
B --------------------------------------------------------------------|
G --------------------------------------5-5555555555------------------|
D 2-222--55--00-000--2-222--55--00-000--5-5555555555-0-00000000000000-|
A 2-222--55--00-000--2-222--55--00-000--3-3333333333-0-00000000000000-|
D 2-222--55--00-000--2-222--55--00-000---------------0-00000000000000-|
Tap to rate this tab
# A B C D E F G H I J K L M N O P Q R S T U V W X Y Z