Song name
# A B C D E F G H I J K L M N O P Q R S T U V W X Y Z

An Endless Sporadic - Eternal Bloom tab

-------------------------------------------------------------------------------
			     Eternal Bloom - An Endless Sporadic
-------------------------------------------------------------------------------
Tabbed by: Simpaa
Email: simpa_dist@hotmail.com

I have left some small quirks out, but this is alot of song to tab.
You can play the whole song following this anyhow.

Tuning: DADGBe
e|-----0-----------0----0-----------4---------------0---0--------------------|
B|-----0-----------3----5-----------0-------------3-----2--------------------|
G|-----13----------0----0-----------6-----------2-------2----------------o---|
D|-----11----------2----4-----------7---------3---------0----------------o---|
A|--12-12----------3----5---------0-0----------------------------------------|
D|---------------------------------------------------------------------------|

0:40
[SFX]E E E E			     0:50 E E E E
e|--------------------------------------------------------------------12-----|
B|---------------------------------------------------------------------------|
G|---9-9-9-9------------13-11-------------9-9-9-9-----------13-11------------|
D|--------------11---13-------14--------------------11---13-------14---------|
A|-------------------------------12------------------------------------------|
D|---------------------------------------------------------------------------|

0:59 Git.1
e|---------------------------------------------------------------------------|
B|-----------8-------------------------8-------------------------------------|
G|-------------10---9-7------------------10-9-7h9----9-7-6-------------------|
D|--7h9-10--------------10-9-7-------7---------------------------------------|
A|---------------------------------------------------------------------------|
D|---------------------------------------------------------------------------|
Git.2 Pick the chords if you want to
e|-1--------3--------5-------------------1-----5-----0-----------------------|
B|-1--------3--------6-------------------1-----6-----2-----------------------|
G|-0--------0--------5-------------------0-----5-----4-----------------------|
D|-3--------0--------7-------------------3-----7-----2-----------------------|
A|-------------------5-------------------------5-----0-----------------------|
D|---------------------------------------------------------------------------|

1:08 Git.1
e|------------------------------------------------------------------------------|
B|------------------8----------/8-----------------------------------9-----------|
G|------------7--10---9-7--------10-9-7-9---------7-9---7-----------------------|
D|-------7-9-----------------------------------10---------10-7--/11---9-11-9--7-|
A|---10-------------------------------------------------------------------------|
D|------------------------------------------------------------------------------|
Git. 2
e|-1--------3--------5----------1---------------------------------------------|
B|-1--------3--------6----------3---------------------------------------------|
G|-0--------0--------5----------2---------------------------------------------|
D|-3--------0--------7----------3-----7-----------0-2---0---------6-----------|
A|-------------------5----------1-----7---------3---------3-0--/4---2--4-2--0-|
D|------------------------------------7---------------------------------------|

1.23 Git.2
e|----------------------|--5p4-----------------------|------------------12---|
B|----------------------|-----5----------------------|-----------------------|
G|--------13-11---------|-------4-6--4-------4-5p4---|---------13-11---------|
D|-11--13-------14------|--------------7-5h7-------7-|--11--13-------14------|
A|-----------------12---|----------------------------|-----------------------|
D|----------------------|----------------------------|-----------------------|
Git.1
e|----------------------|----------------------------|------------------12---|
B|----------------------|----------------------------|-----------------------|
G|--------13-11---------|--------------5-----7-------|---------13-11---------|
D|-11--13-------14------|-7------------5-----7-------|--11--13-------14------|
A|-----------------12---|-7------------3-----5-------|-----------------------|
D|----------------------|-7--------------------------|-----------------------|

1.38 Git.2
e|-1----------3----5-------------------1-----5-----0-----------------------|
B|-1----------3----6-------------------1-----6-----2-----------------------|
G|-0----------0----5-------------------0-----5-----4-----------------------|
D|-3----------0----7-------------------3-----7-----2-----------------------|
A|-----------------5-------------------------5-----0-----------------------|
D|-------------------------------------------------------------------------|
Git. 1
e|-------------------------------------------------------------------------|
B|---------------------------------------8--------10/12-10-----------------|
G|--12h14--12-10-9-7-9-10------------------9--7h9--------------------------|
D|------------------------7------7-9-10------------------------------------|
A|----------------------------10-------------------------------------------|
D|-------------------------------------------------------------------------|


1:48 Git.1
e|----------------12-10----------------------------------------------------------------------|
B|-10-12---10-12----------10-12----10-------8----------88------------------------------------|
G|-------------------------------------9--7----9---99------10101010-999-77-7h9---------------|
D|-----------------------------------------------------------------------------10-10p9p7-----|
A|-------------------------------------------------------------------------------------------|
D|-------------------------------------------------------------------------------------------|
Git.2
e|-1----3--------5--------------------------------------------------------------|
B|-1----3--------6--------------------------------------------------------------|
G|-0----0--------5--------------------------------------------------------------|
D|-3----0--------7-----------------------8-----7-------8----------------7-------|
A|---------------5-----------------------8-----7-------8----------------7-------|
D|---------------------------------------8-----7-------8----------------7-------|


2:03 Git. 1
e|-----------------------------------------------|
B|-----------------------------------------------|
G|--/9-9--11-12-11--11--9h11---------------------|
D|----------------------------11---11-9-11-11/12-|
A|-----------------------------------------------|
D|-----------------------------------------------|

e|---------------------------------------------------------------------------|
B|---------------------------------------------------------------------------|
G|--/11--11-11-12-14-11--9h11-9-9h11-----------------------------------------|
D|-----------------------------------11---11-9-11-12-------------------------|
A|---------------------------------------------------------------------------|
D|---------------------------------------------------------------------------|

These are chord variations that you can use to back the melody,
I suggest the last one that gives you the high C#.
Sorry but I didnt put in the second chord in the two first variations.
But I don't really like them anyway :P
Git. 2
e|-5-(0)-x|-9--7--9--7---||
B|-5-(7)-x|-10-8--10-8---||
G|-6-(6)-x|-9--7--9--7---||
D|-7-(7)-x|-0--0--0--0---||
A|-5-(5)-x|--------------||
D|-------x|--------------||

2.36 All guitars
e|---------------------------------------------------------------------------|
B|---------------------------------------------------------------------------|
G|---------------------------------------------------------------------------|
D|---------------------------------------------------------------------------|
A|-8-8-8-8-8-8-8-8-8-8-8-8-8-8-8-8-8-8---------------------------------------|
D|-8-8-8-8-8-8-8-8-8-8-8-8-8-8-8-8-8-8---------------------------------------|

				 Make your own ending for it, I ain't tabbing that
2.41 Git. 2
e|-10--9--------7------------------------------------------------------------|
B|------------7----10-------8-8-8--------------------------------------------|
G|--------9------------6-----------------------------------------------------|
D|--------------------------------7------------------------------------------|
A|---------------------------------------------------------------------------|
D|---------------------------------------------------------------------------|
Git. 1                          1._____________  2._____________________________
e|-2------0----0--0-0---0-0---0---2---0-0--3---||-------------------------------|
B|-3------2----2--2-2---2-2---2---3---2-2--3---||--------1---------1------------|
G|-2------2----2--2-2---2-2---2---2---2-2--4-o-||------0---------3--------------|
D|-0------0----0--0-0---0-0---0---0---0-0----o-||----2---------3----------------|
A|---------------------------------------------||--3---------1------------------|
D|---------------------------------------------||-------------------------------|


3.13 Git. 2 Listen to the song for the rhythm, too much to write out
e|---------------------------------------------------------------------------||
B|-10------------------------------7-----------------5-----------------------||
G|-10------------------------------7-----------------5----------------------o||
D|-8-------------------------------5-----------------3----------------------o||
A|---------------------------------------------------------------------------||
D|---------------------------------------------------------------------------||

3.37Git. 1
e|---------------------------------------------------------------------------||
B|-10------------------------------7-----------------5-----------------------||
G|-10------------------------------7-----------------5-----------------------||
D|-8-------------------------------5-----------------3-----------------------||
A|-8-------------------------------5-----------------3-----------------------||
D|-8-------------------------------5-----------------3-----------------------||
Git.2
e|---------------------------------------------------------------------------|
B|---------------------------------------------------------------------------|
G|-5h7h9p7-5h7h9p7-5h7h9p7-5h7h9p7-7h9h11p9-7h9h11p9-9h11h12p11-9h11h12p11---|
D|---------------------------------------------------------------------------|
A|---------------------------------------------------------------------------|
D|---------------------------------------------------------------------------|

e|-12----------13------15----17------17-17--19-19--17--20--------------------|
B|-------------------------------15------------------------------------------|
G|---------------------------------------------------------------------------|
D|---------------------------------------------------------------------------|
A|---------------------------------------------------------------------------|
D|---------------------------------------------------------------------------|
						Then finish inside the scale and follow
						your ears, I couldn't tab it right
e|---------------------------------------------------------------------------|
B|-----------------------------------13-10h12p10-----------------------------|
G|-------------------------10/12/14------------------------------------------|
D|-12--13p10-12---13h10-12---------------------------------------------------|
A|---------------------------------------------------------------------------|
D|---------------------------------------------------------------------------|


4.01 Just one guitar, and I know there's some notes missing
e|-------------------------------|-------------------------------------------|
B|-5--------5----3--------3------|-------------------------------------------|
G|--6--------6----4--------4---o-|-------------------------------------------|
D|---7--------7----5--------5--o-|-------------------------------------------|
A|----5-5-5---------5-5-5--------|-------------------------------------------|
D|-------------------------------|-------------------------------------------|


4.33 Git. 1
e|---------------------------------------------------------------------------||
B|-10------------------------------7--------------5--------------------------||
G|-10------------------------------7--------------5--------------------------||
D|-8-------------------------------5--------------3--------------------------||
A|-8-------------------------------5--------------3--------------------------||
D|-8-------------------------------5--------------3--------------------------||
     Git. 2
e|--------------------------------------------------------------10-----------|
B|-------------------------13-10---------12-10--------------------13-12h13---|
G|---------12-10-------------------10h12-------12-10-12---10h12--------------|
D|---10h12-------12p10h12----------------------------------------------------|
A|---------------------------------------------------------------------------|
D|---------------------------------------------------------------------------|
     Git. 1
e|---------------------------------------------------------------------------|
B|-10-------------------------------7------------5---------------------------|
G|-10-------------------------------7------------5---------------------------|
D|-8--------------------------------5------------3---------------------------|
A|-8--------------------------------5------------3---------------------------|
D|-8--------------------------------5------------3---------------------------|
     Git. 2
e|-10-10--13-12-10--------------------------14-----------17------------------|
B|-----------------13-10--13--------12--14-------15--17----------------------|
G|---------------------------12----------------------------------------------|
D|---------------------------------------------------------------------------|
A|---------------------------------------------------------------------------|
D|---------------------------------------------------------------------------|

4.49	Git.2			   1.(7/8) 2. (8/8)
e|---------------------------------|-----|----------|
B|---------------------------------|-----|----------|
G|---------------------------------|-----|--------o-|
D|------7------4-------------5-----|---9-|--9\7---o-|
A|----4---------------------2------|--5--|--7\5-----|
D|-0-----0-0----0-00000-0-0---0-0--|-0---|----------|

5.04	Git.1
e|------9--------------------7-----------------5------------------------------|
B|----------------------------------------------------------------------------|
G|---------9--------------------7-----------------6------------6h7-9/11-----o-|
D|----------------------------------------------------------9---------------o-|
A|----------------------------------------------------------------------------|
D|----------------------------------------------------------------------------|

This is the same backing as the intro
5.20	Git.1
e|-----------------|----------------------------------------------------------|
B|-----------------|----------------------------------------------------------|
G|-10------7-------|-----------------------------------5--------------7-------|
D|-----------------|--7--------------------------------5--------------7-------|
A|-----------------|--7--------------------------------3--------------5-------|
D|-----------------|--7-------------------------------------------------------|

e|----------------------------------------------------------------------------||
B|----------------------------------------------------------------------------||
G|--------------------------------------------------------------------------o-||
D|--7-------------------------3-----------0---------------------------------o-||
A|--7-------------------------3-----------0-----------------------------------||
D|--7-------------------------3-----------0-----------------------------------||
	Git.2
e|-----------------|----------------------------------------------------------|
B|-10------7-------|--12-9h10p9h10p9h10p9p0-----------------------------------|
G|-10------7-------|------------------------9-------------------------9-------|
D|-8-------5-------|--------------------------11-----9-9/10--10-12-10---------|
A|-8-------5-------|------------------------------12--------------------------|
D|-8-------5-------|----------------------------------------------------------|

e|--------------------------|---------------------------------------------------|
B|--------------------------|--12-9h10p9h10p9h10p9p0----------------------------|
G|-9-----------13--11-------|------------------------9--------------------------|
D|---12-11--13--------14----|--------------------------11-----9-9/10--10-12-10--|
A|-----------------------12-|------------------------------12-------------------|
D|--------------------------|---------------------------------------------------|

e|--------------------------12-|--19-16h17p16h17p16h17p16----------------------------------|
B|-----------------------------|--------------------------17---------------------15----17--|
G|-11-----------13--11---------|-----------------------------18---14-16-16/17-17----17-----|
D|----12-11--13--------14------|-----------------------------------------------------------|
A|-----------------------------|-----------------------------------------------------------|
D|-----------------------------|-----------------------------------------------------------|

e|--------------16-14-12------|--------------------------------------------------|
B|-17-15-14--16---------------|--12-9h10p9h10p9h10p9p0---------------------------|
G|------------------------14--|------------------------9-------------------------|
D|----------------------------|--------------------------11----9-9/10--10-12-10--|
A|----------------------------|-----------------------------12-------------------|
D|----------------------------|--------------------------------------------------|

e|--------------------------12---|---------------------------------|
B|-------------------------------|-----------------14-12-----------|
G|-11-----------13--11-----------|----11-13--11-13--------11-------|
D|----12-11--13--------14--------|---------------------------11----|
A|-------------------------------|------------------------------11-|
D|-------------------------------|---------------------------------|

There is an alternative ending for Guitar 1 where in the last repetition strange things 
to happen
I don't know how to play it, I asked for help and it's minor parallels. Perhaps that's 
the right word
but I don't know all the English musical terms seeing as I'm not English. No around 
the tone B is called H.
Think about that.
Git. 1
e|--0-------------------------------------------------------------------------|
B|--0-------------------------------------------------------------------------|
G|--2---------7---------------------------------------------------------------|
D|--2--2---4--7-----------7-------3---5---------------------------------------|
A|------------5-----------7-------3---5---------------------------------------|
D|--4---------0-----------7-------3---5---------------------------------------|
Tap to rate this tab
 
# A B C D E F G H I J K L M N O P Q R S T U V W X Y Z