Song name
# A B C D E F G H I J K L M N O P Q R S T U V W X Y Z

An Horse - Company tab

-------------------------------------------------------------------------------
			     Company - An Horse
-------------------------------------------------------------------------------
Tabbed by: Andypeebs
Email: andypeebs@hotmail.co.uk

Really great band from Brisbane, Australia. Buy their debut EP
("Not Really Scared") from their Myspace page
(www.myspace.com/anhorse).

Tuning: E standard (capo 6th fret)

Verse 1 

(Guitar 1)
(x6)

E|-----------------------------------------------------------------|
b|---------------0---------------0---------------0---------------0-|
G|-0-0-0-0-0-0-0-0-0-0-0-0-0-0-0-0-0-0-0-0-0-0-0-0-0-0-0-0-0-0-0-0-|
D|-2-2-2-2-2-2-2-0-2-2-2-2-2-2-2-0-0-0-0-0-0-0-0-0-0-0-0-0-0-0-0-0-|
A|-3-3-3-3-3-3-3-0-2-2-2-2-2-2-2-0-2-2-2-2-2-2-2-0-2-2-2-2-2-2-2-0-|
E|---------------------------------3-3-3-3-3-3-3---3-3-3-3-3-3-3---|

(x4)

e|--------------------------------|
B|-----0-------0-0-----0-----0-0--|
G|-0-0-0-0-0-0-0-0-0-0-0-0-0-0-0--|
D|-2-2-2-2-2-2-2-0-2-2-2-2-2-2-0--|
A|-3-3-3-3-3-3-3-0-2-2-2-2-2-2-0--|
E|--------------------------------|

(x1)

E|-----------------------------------------------------------------|
b|---------------0---------------0---------------0---------------0-|
G|-0-0-0-0-0-0-0-0-0-0-0-0-0-0-0-0-0-0-0-0-0-0-0-0-0-0-0-0-0-0-0-0-|
D|-2-2-2-2-2-2-2-0-2-2-2-2-2-2-2-0-0-0-0-0-0-0-0-0-0-0-0-0-0-0-0-0-|
A|-3-3-3-3-3-3-3-0-2-2-2-2-2-2-2-0-2-2-2-2-2-2-2-0-2-2-2-2-2-2-2-0-|
E|---------------------------------3-3-3-3-3-3-3---3-3-3-3-3-3-3---|

Melody (from 3rd repetiton of the verse (guitar 2))

e|-------------------------------------|
B|-------------------------------------|
G|-------------------------------------| x6
D|-------------------------------------|
A|--------0-0---2-2---0-0---0-0--------|
E|-3-3---------------------------------|

e|-------------------------------------|
B|-------------------------------------|
G|------5------------------------------|
D|------5------------------------------| x4
A|-3----------2------------------------|
E|-------------------------------------|

e|-------------------------------------|
B|-------------------------------------|
G|-------------------------------------| x2
D|-------------------------------------|
A|--------0-0---2-2---0-0---0-0--------|
E|-3-3---------------------------------|

Chorus

(x2)

e|-----------------------------------------------------------------|
B|-0-0-0-0-0-0-0-0-0-0-0-0-0-0-0-0-0-0-0-0-0-0-0-0-0-0-0-0-0-0-0-0-|
G|-0-0-0-0-0-0-0-0-0-0-0-0-0-0-0-0-0-0-0-0-0-0-0-0-0-0-0-0-0-0-0-0-|
D|-2-2-2-2-2-2-2-2-2-2-2-2-2-2-2-2/5-5-5-5-5-5-5-5-5-5-5-5-5-5-5-5-|
A|-3-3-3-3-3-3-3-3-3-3-3-3-3-3-3-3/7-7-7-7-7-7-7-7-7-7-7-7-7-7-7-7-|
E|-----------------------------------------------------------------|

Verse 2 

(guitar 1)
(x4)

e|-----------------------------------------------------------------|
B|-----0-------0-0-----0-------0-0-----0-------0-0-----0-------0-0-|
G|-0-0-0-0-0-0-0-0-0-0-0-------0-0-0-0-0-0-0-0-0-0-0-0-0-0-0-0-0-0-|
D|-2-2-2-2-2-2-2-0-2-2-2-2-2-2-2-0-0-0-0-0-0-0-0-0-0-0-0-0-0-0-0-0-|
A|-3-3-3-3-3-3-3-0-2-2-2-2-2-2-2-0-2-2-2-2-2-2-2-0-2-2-2-2-2-2-2-0-|
E|---------------------------------3-3-3-3-3-3-3---3-3-3-3-3-3-3---|

(x4)

e|----------------------------------|
B|-----0-------0-0-----0-------0-0--|
G|-0-0-0-0-0-0-0-0-0-0-0-0-0-0-0-0--|
D|-2-2-2-2-2-2-2-0-2-2-2-2-2-2-2-0--|
A|-3-3-3-3-3-3-3-0-2-2-2-2-2-2-2-0--|
E|----------------------------------|

Melody (guitar 2)

e|----------------------------------|
B|----------------------------------|
G|----------------------------------| x8
D|----------------------------------|
A|--------0-0---2-2---0-0---0-0-----|
E|-3-3------------------------------|

e|----------------------------------|
B|----------------------------------|
G|------5---------------------------|
D|------5---------------------------| x4
A|-3----------2---------------------|
E|----------------------------------|

Chorus (x6)

e|-----------------------------------------------------------------|
B|-0-0-0-0-0-0-0-0-0-0-0-0-0-0-0-0-0-0-0-0-0-0-0-0-0-0-0-0-0-0-0-0-|
G|-0-0-0-0-0-0-0-0-0-0-0-0-0-0-0-0-0-0-0-0-0-0-0-0-0-0-0-0-0-0-0-0-|
D|-2-2-2-2-2-2-2-2-2-2-2-2-2-2-2-2/5-5-5-5-5-5-5-5-5-5-5-5-5-5-5-5-|
A|-3-3-3-3-3-3-3-3-3-3-3-3-3-3-3-3/7-7-7-7-7-7-7-7-7-7-7-7-7-7-7-7-|
E|-----------------------------------------------------------------|

Bridge (x6)

e|-------------------------------------------------------------------|
B|---------------0-0-0-0-0-0-0-0-0-0-0-0-0-0-0-0-0-0-0-0-0-0-0-0-0-0-|
G|---------------0-4-4-4-4-4-4-4-0-4-4-4-4-4-4-4-4-4-4-4-4-4-4-4-4-0-|
D|-2-2-2-2-2-2-2-0-5-5-5-5-5-5-5-0-5-5-5-5-5-5-5-5-5-5-5-5-5-5-5-5-0-|
A|-2-2-2-2-2-2-2-0-5-5-5-5-5-5-5-0-3-3-3-3-3-3-3-3-3-3-3-3-3-3-3-3-0-|
E|-0-0-0-0-0-0-0---3-3-3-3-3-3-3-0-----------------------------------|

Outro

e|---------------------------------------------------|
B|---------------0-0-0-0-0-0-0-0-0-0-0-0-0-0-0-0-0-0-|
G|---------------0-4-4-4-4-4-4-4-0-4-4-4-4-4-4-4-0-0-|
D|-2-2-2-2-2-2-2-0-5-5-5-5-5-5-5-0-5-5-5-5-5-5-5-0-2-|
A|-2-2-2-2-2-2-2-0-5-5-5-5-5-5-5-0-3-3-3-3-3-3-3-0-2-|
E|-0-0-0-0-0-0-0---3-3-3-3-3-3-3-------------------0-|
Tap to rate this tab
# A B C D E F G H I J K L M N O P Q R S T U V W X Y Z