Guitaretab - guitar tabs
Song name
# A B C D E F G H I J K L M N O P Q R S T U V W X Y Z

An Horse - Litle Little Little tab

-------------------------------------------------------------------------------
		       LITTLE LITTLE LITTLE - An Horse
-------------------------------------------------------------------------------
Tabbed by:LVeg
Email: lrv6742@rit.edu

Tuning: Standard, capo 4th fret

Iím not going to show how many times to play each chord or the strumming pattern. You 
figure it out for the most part by listening to the cd.


Chorus
e|---------------------------------------------------------------------------|
B|---------------------------------------------------------------------------|
G|---------------------------------------------------------------------------|
D|---------------------------------------------------------------------------|
A|2------------------------5----------3--------------------------------------|
E|3------------------------5----------3--------------------------------------|

  Oh my god youíre a       hand        full
  And oh my god these      hands are   so small
  Oh my god Iím a          hand        full
  And oh my god your       hands       got so


e|---------------------------------------------------------------------------|
B|---------------------------------------------------------------------------|
G|---------------------------------------------------------------------------|
D|---------------------------------------------------------------------------|
A|7--------------3-----------------------------------------------------------|
E|7--------------3-----------------------------------------------------------|

  full of me     oh so completely

[ Tab from: http://www.guitaretab.com/a/an-horse/182703.html ]
Verse (Same chord progression as Chorus)
I thought I needed a suitcase
So I could pack this all away
I thought I needed a cold place
So when it snowed
I could cuddle up to someone I donít know

Chorus

Verse
I thought I needed a brave face
For one whole year I burned so brightly
I thought I needed a new place
But I looked around
And this was the town that I found
That I found


Bridge

e|---------------------------------------------------------------------------|
B|3--------------------------------------------------------------------------|
G|---------------------------------------------------------------------------|
D|2--------------------------------------------------------------------------|
A|1--------------------------------------------------------------------------|
E|---------------------------------------------------------------------------|

  Believe me believe me
  When I say


e|---------------------------------------------------------------------------|
B|---------------------------------------------------------------------------|
G|---------------------------------------------------------------------------|
D|2--------------------------------------------------------------------------|
A|2--------------------------------------------------------------------------|
E|0--------------------------------------------------------------------------|

  I donít want what I had yesterday

(chord progression continues for bridge)
Believe me believe me
When I say
I feel awake for a month and one day
Believe me believe me
When I say
I gave everything away
Believe me believe me
When I say
I donít want what I had yesterday


Chorus
Related for Litle Little Little tab