Song name
# A B C D E F G H I J K L M N O P Q R S T U V W X Y Z

An Horse - Listen tab

Capo on 4th fret
E|---------------------------------|--------------------------------|
B|---------------------------------|--------------------------------|
G|---0-----0-----0-----0-----0-----|--0-----0-----0-----0-----0-----|
D|-----2-----2-----2-----2-----2---|----5-----5-----5-----5-----5---|
A|-3-----3-----3-----3-----3-----3/|7-----7-----7-----7-----7-----0-|
e|---------------------------------|--------------------------------|

E|---------------------------------|---------------------------------------|
B|---------------------------------|---------------------------------------|
G|---0-----0-----0-----0-----0-----|----0------0------0------0------0------|
D|-----7-----7-----7-----7-----7---|------9------9------9------9------9----|
A|-5-----5-----5-----5-----5-----0-|-10-----10-----10-----10-----10-----10\|
e|---------------------------------|---------------------------------------|

Repeat through the whole song
Tap to rate this tab
# A B C D E F G H I J K L M N O P Q R S T U V W X Y Z