Guitaretab - guitar tabs
Song name
# A B C D E F G H I J K L M N O P Q R S T U V W X Y Z

An Horse - Horizons tab

-------------------------------------------------------------------------------
			     Horizons- An Horse
-------------------------------------------------------------------------------
Tabbed by:LVeg
Email:lrv6742@rit.edu

Tuning:standard capo on 4th fret

Intro
e|---------------------------------------------------------------------------|
B|---------------------------------------------------------------------------|
G|---------------------------------------------------------------------------|
D|---------------------------------------------------------------------------|
A|22222222-77777777-22222222-77777777----------------------------------------|
E|33333333-88888888-33333333-88888888----------------------------------------|

Verse
 e|-----------------------------------------------------------------------------|
B|------------------------------------------------------------------------------|
G|------------------------------------------------------------------------------|
D|------------------------------------------------------------------------------|
A|22222222-77777777-------------------------------------------------------------|
E|33333333-88888888-------------------------------------------------------------|
A boat in the Gulf of Mexico
I know, I know it doesnít snow
I know, I know where to go
In the book by my bed
That holds all the maps of places we travel
And where lives intersect

I know I know where to go
I know I know it doesnít snow


Chorus
e|---------------------------------------------------------------------------|
B|---------------------------------------------------------------------------|
G|---------------------------------------------------------------------------|
D|---------------------------------------------------------------------------|
A|555-555-555-555------------------------------------------------------------|
E|555-555-555-555------------------------------------------------------------|
A roof top crows nest in a sea swell

e|---------------------------------------------------------------------------|
B|---------------------------------------------------------------------------|
G|---------------------------------------------------------------------------|
D|---------------------------------------------------------------------------|
A|333-333-333-333------------------------------------------------------------|
E|333-333-333-333------------------------------------------------------------|
Oh yes Iím doing so well
[ Tab from: http://www.guitaretab.com/a/an-horse/184324.html ]
(repeat chord progression)
A roof top crows nest in a sea swell
Oh yes I can see so well
e|---------------------------------------------------------------------------|
B|---------------------------------------------------------------------------|
G|---------------------------------------------------------------------------|
D|---------------------------------------------------------------------------|
A|555-555-555-555------------------------------------------------------------|
E|555-555-555-555------------------------------------------------------------|
And youíre nowhere to be seen.

e|---------------------------------------------------------------------------|
B|---------------------------------------------------------------------------|
G|---------------------------------------------------------------------------|
D|----------------2222222222222222-------------------------------------------|
A|333-333-333-333-2222222222222222-------------------------------------------|
E|333-333-333-333-0000000000000000-------------------------------------------|
And youíre nowhere to be seen.

e|---------------------------------------------------------------------------|
B|---------------------------------------------------------------------------|
G|---------------------------------------------------------------------------|
D|---------------------------------------------------------------------------|
A|22222222-77777777-22222222-77777777----------------------------------------|
E|33333333-88888888-33333333-88888888----------------------------------------|

Sometimes you lay out like a map in front of me
Well you know I have to go
But you know iíll come home

When I climb on my ship and I look all around
I believe in horizons now
I believe in horizons now

Chorus

Bridge
e|---------------------------------------------------------------------------|
B|---------------------------------------------------------------------------|
G|---------------------------------------------------------------------------|
D|---------------------------------------------------------------------------|
A|2----------------------7---------------------------------------------------|
E|3----------------------8---------------------------------------------------|
I believe in horizons now
I believe in horizons now
I believe in horizons now
I believe in horizons now

e|---------------------------------------------------------------------------|
B|---------------------------------------------------------------------------|
G|---------------------------------------------------------------------------|
D|---------------------------------------------------------------------------|
A|22222222-77777777----------------------------------------------------------|
E|33333333-88888888----------------------------------------------------------|
I believe in horizons now
I believe in horizons now
I believe in horizons now
I believe in horizons now

Chorus

Outro
e|-----------------------------------------------------------------------------|
B|-----------------------------------------------------------------------------|
G|-----------------------------------------------------------------------------|
D|22222222---------------------------------------------------------------------|
A|22222222-2-------------------------------------------------------------------|
E|00000000-3------------5-------------8----------------------------------------|x4
Related for Horizons tab