Song name
# A B C D E F G H I J K L M N O P Q R S T U V W X Y Z

An Horse - Scared As Fuck tab

Standard Tuning
Capo on the 6th fret
This song is just three sections, repeated as necessary:

“I’m not really scared...” / “You can take my socks...”
e--------------|
B--------------|
G--------------|
D---5----------|
A---3------5---|
E----------3---|

“But I got so scared...”
e--------------|
B--------------|
G--------------|
D---2----------|
A---2------2---|
E----------3---|

“We know someone who got so scared...”
e--------------|
B---1----------|
G---2----------|
D---2------2---|
A----------2---|
E--------------|
Tap to rate this tab
# A B C D E F G H I J K L M N O P Q R S T U V W X Y Z