Song name
# A B C D E F G H I J K L M N O P Q R S T U V W X Y Z

An Horse - Postcards tab

-----------------------------------------------------------
	     Postcards Ė An Horse

-----------------------------------------------------------
Tabbed by: LVeg

Tuning: Standard/ Capo on 6th


The other tab on this site wasnít wrong per say but this is a better tab of how Kate
her part. Itís easy-peasy, just listen to the rhythm on the song or in a live video. If you
to get fancy you can palm mute the chords when the guitar is more distorted, but that is 
to you. Have fun!


    Intro
e|---------------------|
B|---------------------|
G|---------------------|
D|2-2------------------|
A|2-2----2-2----3-3----|
E|0-0----3-3----3-3----|  x2

e|---------------------|
B|---------------------|
G|---------------------|
D|2-2------------------|
A|2-2----2-2----3-3----|
E|0-0----3-3----3-3----|

   Well, old post cards
   are romantic when theyíre intact
   And old postcards
   are romantically filled of fact.
   And the ones you have to watch
   are the ones that keep coming back.
   And you came back;
   yes you came back
e|------------------------------------------|
B|------------------------------------------|
G|------------------------------------------|
D|2-2-2-2-2-2-2-2---------------------------|
A|2-2-2-2-2-2-2-2-2-2-2-2-2-3-3-3-3-3-3-3-3-|
E|0-0-0-0-0-0-0-0-3-3-3-3-3-3-3-3-3-3-3-3-3-|

 -k


e|---------------------|
B|---------------------|
G|---------------------|
D|2-2------------------|
A|2-2----2-2----3-3----|
E|0-0----3-3----3-3----|

Well old cards sit on old cards.
And the streets have changed,
But I think Iím still the same.


e|------------------------------------------|
B|------------------------------------------|
G|------------------------------------------|
D|2-2-2-2-2-2-2-2---------------------------|
A|2-2-2-2-2-2-2-2-2-2-2-2-2-3-3-3-3-3-3-3-3-|
E|0-0-0-0-0-0-0-0-3-3-3-3-3-3-3-3-3-3-3-3-3-|

And itís not what I want to hear, what I want to see
but your skinís covered in postcards from you to me, to me. x2

e|-----------------------------------------------------------------|
B|-----------------------------------------------------------------|
G|-----------------------------------------------------------------|
D|------------------------------------------------2222222222222222-|
A|7777777777777777555555555555555533333333333333332222222222222222
E|7777777777777777555555555555555533333333333333330000000000000000
   When you see me sit by myself, youíll think that Iím waiting for someone else.
   But Iím wishing for somewhere else, Iím wishing for somewhere else.] x2


e|---------------------|
B|---------------------|
G|---------------------|
D|2-2------------------|
A|2-2----2-2----3-3----|
E|0-0----3-3----3-3----|

Two postcards in a month or so,
well I donít know, I just donít know. x2


e|------------------------------------------|
B|------------------------------------------|
G|------------------------------------------|
D|2-2-2-2-2-2-2-2---------------------------|
A|2-2-2-2-2-2-2-2-2-2-2-2-2-3-3-3-3-3-3-3-3-|
E|0-0-0-0-0-0-0-0-3-3-3-3-3-3-3-3-3-3-3-3-3-|

And itís not what I want to hear, what I want to see
but your skinís covered in postcards from you to me, to me.

to me,                      to me,                 to me,
to me

Outro
e|---------------------|
B|---------------------|
G|---------------------|
D|2-2------------------|
A|2-2----2-2----3-3----|
E|0-0----3-3----3-3----|
Tap to rate this tab
# A B C D E F G H I J K L M N O P Q R S T U V W X Y Z