An Horse - Know This Weve Noticed tab

AN HORSE - KNOW THIS, WE'VE NOTICED 

capo on 2nd fret, standard tuning

intro + verse

E|-------------------------------------------|
A|-5---5-----7---7-----3---3---5--2---2------|
D|---0----0----0-----0---0----------0----0---|   x6
G|------0---------0----------0---------0-----|
B|-------------------------------------------|
e|-------------------------------------------|

pre chorus (do...)

E|-------------------------------------------|
A|-2---2-----3---3-----5---5-----5----5------|
D|---0----0----0-----0---0-----0----0----0---| 
G|------0---------0----------0---------0-----|
B|-------------------------------------------|
e|-------------------------------------------|

E|-------------------------------------------|
A|-5---5-----3---3-----2---2-----2----2------|
D|---0----0----0-----0---0-----0----0----0---|    x2
G|------0---------0----------0---------0-----|
B|-------------------------------------------|
e|-------------------------------------------|

chorus

E|--3------------8--------|
A|--5-----------10--------|
D|-----x12----------x12---|   x2
G|------------------------|
B|------------------------|
e|------------------------|

post chorus

E|-------------------------------------------|
A|-5---5-----7---7-----3---3---5--2---2------|
D|---0----0----0-----0---0----------0----0---| 
G|------0---------0----------0---------0-----|  x2
B|-------------------------------------------|
e|-------------------------------------------|


verse

E|-------------------------------------------|
A|-5---5-----7---7-----3---3---5--2---2------|
D|---0----0----0-----0---0----------0----0---|   x4
G|------0---------0----------0---------0-----|
B|-------------------------------------------|
e|-------------------------------------------|

pre chorus (minds...)

E|-------------------------------------------|
A|-2---2-----3---3-----5---5-----5----5------|
D|---0----0----0-----0---0-----0----0----0---| 
G|------0---------0----------0---------0-----|
B|-------------------------------------------|
e|-------------------------------------------|

E|-------------------------------------------|
A|-5---5-----3---3-----2---2-----2----2------|
D|---0----0----0-----0---0-----0----0----0---|    x2
G|------0---------0----------0---------0-----|
B|-------------------------------------------|
e|-------------------------------------------|


chorus + bridge

E|--3------------8--------|
A|--5-----------10--------|
D|-----x12----------x12---|   x4
G|------------------------|
B|------------------------|
e|------------------------|

E|--3-----------8------|
A|--5----------10------|
D|-----x8---------x8---|   x 8
G|---------------------|
B|---------------------|
e|---------------------|


E|--3------------8--------|
A|--5-----------10--------|
D|-----x12----------x12---|   x6
G|------------------------|
B|------------------------|
e|------------------------| 


E|--3~--|
A|--5~--|
D|------|  
G|------|
B|------|
e|------|


post chorus

E|-------------------------------------------|
A|-5---5-----7---7-----3---3---5--2---2------|
D|---0----0----0-----0---0----------0----0---|    
G|------0---------0----------0---------0-----|
B|-------------------------------------------|
e|-------------------------------------------|

E|-------------------------------------------|
A|-5---5-----7---7-----3---3---5--2----------|
D|---0----0----0-----0---0-------------------| 
G|------0---------0----------0---------------|
B|-------------------------------------------|
e|-------------------------------------------|
Tap to rate this tab
 
# A B C D E F G H I J K L M N O P Q R S T U V W X Y Z