Guitaretab - guitar tabs
Song name
# A B C D E F G H I J K L M N O P Q R S T U V W X Y Z

An Horse - Dressed Sharply tab

AN HORSE - DRESSED SHARPLY

capo on 6th fret, standard tuning

intro

E|33330666603333000000|
A|22220555505555033330|
D|----0----0----055550|     x2
G|--------------------|
B|--------------------|
e|--------------------|

E|33333333066666666033333333000000|
A|22222222055555555055555555033330|
D|--------0--------0--------055550|     x1
G|--------------------------------|
B|--------------------------------|
e|--------------------------------|

verse

E|33330666603333000000|
A|22220555505555033330|
D|----0----0----055550|     x4
G|--------------------|
B|--------------------|
e|--------------------|


chorus (basic dudu strum)
E|3333333333333333000000000000000000|
A|2222222222222222022222222222222220|
D|----------------022222222222222220|    
G|----------------------------------|
B|----------------------------------|
e|----------------------------------|

[ Tab from: http://www.guitaretab.com/a/an-horse/275291.html ]
E|0000000000000000000000000000000000|
A|3333333333333333022222222222222220|
D|5555555555555555022222222222222220|    x2
G|----------------------------------|
B|----------------------------------|
e|----------------------------------|


post chorus
E|3333066660333300000-|
A|2222055550555503333-|
D|----0----0----05555-|     x1
G|--------------------|
B|--------------------|
e|--------------------|

verse

E|33330666603333000000|
A|22220555505555033330|
D|----0----0----055550|     x2
G|--------------------|
B|--------------------|
e|--------------------|

chorus 
E|3333333333333333000000000000000000|
A|2222222222222222022222222222222220|
D|----------------022222222222222220|    
G|----------------------------------|
B|----------------------------------|
e|----------------------------------|


E|0000000000000000000000000000000000|
A|3333333333333333022222222222222220|
D|5555555555555555022222222222222220|    x3
G|----------------------------------|
B|----------------------------------|
e|----------------------------------|

bridge
E|333333330000000000000000000000000000|
A|222222220222222220333333330222222220|
D|--------0222222220555555550222222220|   x4
G|------------------------------------|
B|------------------------------------|
e|------------------------------------|
Related for Dressed Sharply tab
×
Best way to learn
"Dressed Sharply"