Song name
# A B C D E F G H I J K L M N O P Q R S T U V W X Y Z

An Horse - Dress Sharply tab

So the album came out today, and I wanted to jam to it. Here are the fruits of my most 
successful attempt at learning a song.

-Standard Tuning
-Capo 6th fret (from what I can see in live performances at least)
NOTE: Not relative to capo, but the actual frets it's played on.
NOTE 2: Kate kinda mashes the open strings, so feel free to do so, I just didn't tab it in.

Intro/Verse:
e|-------------------------------------------------------------------------|
B|-------------------------------------------------------------------------|
G|----10-10-10-10----13-13-13-13------------------11-11-11-11--------------|
D|----------------------------------11-11-11-11----------------------------|
A|----8--8--8--8-----11-11-11-11------------------9--9--9--9---------------|
E|----------------------------------9--9--9--9-----------------------------|
For the 2nd part of the intro, just mash the chords in the rhythm of the song.


Chorus:

e|------------------------------6--6--6--6--6--6--6--6-------------------|
B|---6--6--6--6--6--6--6--6-----6--6--6--6--6--6--6--6-------------------|
G|---6--6--6--6--6--6--6--6-----6--6--6--6--6--6--6--6-------------------|
D|---11-11-11-11-11-11-11-11----8--8--8--8--8--8--8--8-------------------|
A|---11-11-11-11-11-11-11-11----8--8--8--8--8--8--8--8-------------------|
E|---9--9--9--9--9--9--9--9-----6--6--6--6--6--6--6--6-------------------|

And I'm pretty sure that's it. Overall pretty straightforward, but brilliantly written, 
like all of their stuff.
Tap to rate this tab
 
# A B C D E F G H I J K L M N O P Q R S T U V W X Y Z