Song name
# A B C D E F G H I J K L M N O P Q R S T U V W X Y Z

An Horse - Dressed Sharply tab

Title: Dressed Sharply
Artist: An Horse
Album: Walls

Capo: 6th 
Note: I'm not really sure 'bout the 2nd Chord in the Outro-Part.


Intro/Verse

E|---------------------|---------------------|---------------------|---------------------|
B|---------------------|---------------------|---------------------|---------------------|
G|-4----4----4----4----|-7----7----7----7----|---------------------|---------------------|
D|-0----0----0----0----|-0----0----0----0----|---------------------|-5----5----5----5----|
A|-2----2----2----2----|-5----5----5----5----|-5----5----5----5----|-3----3----3----3----|
E|-x----x----x----x----|-x----x----x----x----|-3----3----3----3----|-x----x----x----x----|

E|---------------------|---------------------|---------------------|---------------------|
B|---------------------|---------------------|---------------------|---------------------|
G|-4----4----4----4----|-7----7----7----7----|---------------------|---------------------|
D|-0----0----0----0----|-0----0----0----0----|---------------------|-5----5----5----5----|
A|-2----2----2----2----|-5----5----5----5----|-5----5----5----5----|-3----3----3----3----|
E|-x----x----x----x----|-x----x----x----x----|-3----3----3----3----|-x----x----x----x----|

E|---------------------|
B|---------------------|
G|---------------------|
D|-5----5----5----5----|
A|-3----3----3----3----|
E|-x----x----x----x----|



Chorus

E|---------------------|---------------------|---------------------|---------------------|
B|---------------------|---------------------|---------------------|---------------------|
G|---------------------|---------------------|---------------------|---------------------|
D|---------------------|---------------------|-2----2----2----2----|-2----2----2----2----|
A|-2----2----2----2----|-2----2----2----2----|-2----2----2----2----|-2----2----2----2----|
E|-3----3----3----3----|-3----3----3----3----|---------------------|---------------------|

E|---------------------|---------------------|---------------------|---------------------|
B|---------------------|---------------------|---------------------|---------------------|
G|---------------------|---------------------|---------------------|---------------------|  
D|-5----5----5----5----|-5----5----5----5----|-2----2----2----2----|-2----2----2----2----|
A|-3----3----3----3----|-3----3----3----3----|-2----2----2----2----|-2----2----2----2----|
E|-x----x----x----x----|-x----x----x----x----|---------------------|---------------------|



Outro

E|---------------------|---------------------|---------------------|---------------------|
B|---------------------|---------------------|---------------------|---------------------|
G|---------------------|---------------------|---------------------|---------------------|
D|-5----5----5----5----|-5----5----5----5----|---------------------|---------------------|
A|-3----3----3----3----|-3----3----3----3----|-3----3----3----3----|-3----3----3----3----|
E|-x----x----x----x----|-x----x----x----x----|-5----5----5----5----|-5----5----5----5----|

E|---------------------|---------------------|---------------------|---------------------|
B|---------------------|---------------------|---------------------|---------------------|
G|---------------------|---------------------|---------------------|---------------------|
D|---------------------|---------------------|-5----5----5----5----|-5----5----5----5----|
A|-5----5----5----5----|-5----5----5----5----|-3----3----3----3----|-3----3----3----3----|
E|-3----3----3----3----|-3----3----3----3----|-x----x----x----x----|-x----x----x----x----|



Lyrics

(Intro)

(Verse) I have nothing new to tell you
Since the last time that I wrote
But I know with certainty that
Your hands will get this notes

(Verse) I donít need any mirrors in the hallway
To remind me how Iím feeling today
I donít want any lights in my house
Turn them off put them down throw them out

(Chorus) I read, I read
A yellow shirt
And a blue jacket

(Verse) I learned for the first time today
A red flag means that Iíll be ok
You get up when I go sleep but
Thatís just me and geography

(Verse) (I swear you stole my sleep for
At least four whole goddamn weeks and
I swear when next we meet, well,
I will not let you sleep)

(Chorus) I read, I read
A yellow shirt
And a blue jacket

(Outro) Dressed so sharply
You know I will read
Every word that you send me


Tap to rate this tab
 
# A B C D E F G H I J K L M N O P Q R S T U V W X Y Z