An Horse - Not Mine tab

Title: Not Mine
Artist: An Horse
Album: Walls

Capo: II 
x: mute 

Verse 1

E|---------------------|---------------------|---------------------|---------------------|
B|---------------------|---------------------|---------------------|---------------------|
G|---------------------|---------------------|---------------------|---------------------|
D|-5----5----5----5----|-9----9----9----9----|-7----7----7----7----|-9----9----9----9----|
A|-3----3----3----3----|-7----7----7----7----|-5----5----5----5----|-7----7----7----7----|
E|-x----x----x----x----|-x----x----x----x----|-x----x----x----x----|-x----x----x----x----|
(Verse 1) A cold night, in the summer time
Under street lights that werenít mine
In a city I think it was yours


Verse 2

E|---------------------|---------------------|---------------------|
B|---------------------|---------------------|---------------------|
G|---------------------|---------------------|---------------------|
D|-5----5----5----5----|-9----9----9----9----|-7----7----7----7----|
A|-3----3----3----3----|-7----7----7----7----|-5----5----5----5----|
E|-x----x----x----x----|-x----x----x----x----|-x----x----x----x----|

(Verse 2) You said this weather weíre having is not quite right
Summerís not being itself tonight
Not tonight

Verse 3

E|---------------------|---------------------|---------------------|---------------------|
B|---------------------|---------------------|---------------------|---------------------|
G|---------------------|---------------------|---------------------|---------------------|
D|-5----5----5----5----|-9----9----9----9----|-7----7----7----7----|-9----9----9----9----|
A|-3----3----3----3----|-7----7----7----7----|-5----5----5----5----|-7----7----7----7----|
E|-x----x----x----x----|-x----x----x----x----|-x----x----x----x----|-x----x----x----x----|


E|---------------------|
B|---------------------|
G|---------------------|
D|-7----7----7----7----|
A|-5----5----5----5----|
E|-x----x----x----x----|


(Verse 3) I said itís alright, summer seems just fine
I have no idea what itís really like
This far north and to the right
It seems fine

Chorus

E|-------------|-------------|-------------|-------------|
B|-------------|-------------|-------------|-------------|
G|-------------|-------------|-------------|-------------|
D|-5-----5-----|-9-----9-----|-5-----5-----|-9-----9-----|
A|-3-----3-----|-7-----7-----|-3-----3-----|-7-----7-----|
E|-x-----x-----|-x-----x-----|-x-----x-----|-x-----x-----|


E|-------------|-------------|-------------|-------------|
B|-------------|-------------|-------------|-------------|
G|-------------|-------------|-------------|-------------|
D|-5-----5-----|-9-----9-----|-7-----7-----|-7-----7-----|
A|-3-----3-----|-7-----7-----|-5-----5-----|-5-----5-----|
E|-x-----x-----|-x-----x-----|-x-----x-----|-x-----x-----|

(Chorus) From over here, here, here, here
From over here, here it seems fine


Verse 4

E|---------------------|---------------------|---------------------|---------------------|
B|---------------------|---------------------|---------------------|---------------------|
G|---------------------|---------------------|---------------------|---------------------|
D|-5----5----5----5----|-9----9----9----9----|-7----7----7----7----|-9----9----9----9----|
A|-3----3----3----3----|-7----7----7----7----|-5----5----5----5----|-7----7----7----7----|
E|-x----x----x----x----|-x----x----x----x----|-x----x----x----x----|-x----x----x----x----|

(Verse 4) A warm night, come on itís summer time
Under desk lights that werenít mine
Iím quite sure that they were yours

Verse 5

E|---------------------|---------------------|---------------------|
B|---------------------|---------------------|---------------------|
G|---------------------|---------------------|---------------------|
D|-5----5----5----5----|-9----9----9----9----|-7----7----7----7----|
A|-3----3----3----3----|-7----7----7----7----|-5----5----5----5----|
E|-x----x----x----x----|-x----x----x----x----|-x----x----x----x----|

(Verse 5) I said thereís something growing in my heart thatís black
As black as the sky on a moonless night
Thereís no cherry pie in sight


Verse 6

E|---------------------|---------------------|---------------------|---------------------|
B|---------------------|---------------------|---------------------|---------------------|
G|---------------------|---------------------|---------------------|---------------------|
D|-5----5----5----5----|-9----9----9----9----|-7----7----7----7----|-9----9----9----9----|
A|-3----3----3----3----|-7----7----7----7----|-5----5----5----5----|-7----7----7----7----|
E|-x----x----x----x----|-x----x----x----x----|-x----x----x----x----|-x----x----x----x----|


(Verse 6) You said alright, thatís enough Twin Peaks for one night
Your heart it seems just fine, your heart it seems just fine


Chorus

E|-------------|-------------|-------------|-------------|
B|-------------|-------------|-------------|-------------|
G|-------------|-------------|-------------|-------------|
D|-5-----5-----|-9-----9-----|-5-----5-----|-9-----9-----|
A|-3-----3-----|-7-----7-----|-3-----3-----|-7-----7-----|
E|-x-----x-----|-x-----x-----|-x-----x-----|-x-----x-----|


E|-------------|-------------|-------------|-------------|
B|-------------|-------------|-------------|-------------|
G|-------------|-------------|-------------|-------------|
D|-5-----5-----|-9-----9-----|-7-----7-----|-7-----7-----|
A|-3-----3-----|-7-----7-----|-5-----5-----|-5-----5-----|
E|-x-----x-----|-x-----x-----|-x-----x-----|-x-----x-----|

(Chorus) From over here, here, here, here
From over here, here it seems fine


Verse 7

E|-------------|-------------|-------------|--------|
B|-------------|-------------|-------------|--------|
G|-------------|-------------|-------------|--------|
D|-5-----9-----|-7-----9-----|-5-----9-----|-7------|
A|-3-----7-----|-5-----7-----|-3-----7-----|-5------|
E|-x-----x-----|-x-----x-----|-x-----x-----|-x------|

(Verse 7) Iíll navigate the best I can, use this desk light as my friend
To get back where?
To get back where?


Chorus 2x

E|-------------|-------------|-------------|-------------|
B|-------------|-------------|-------------|-------------|
G|-------------|-------------|-------------|-------------|
D|-5-----5-----|-9-----9-----|-5-----5-----|-9-----9-----|
A|-3-----3-----|-7-----7-----|-3-----3-----|-7-----7-----|
E|-x-----x-----|-x-----x-----|-x-----x-----|-x-----x-----|


E|-------------|-------------|-------------|-------------|
B|-------------|-------------|-------------|-------------|
G|-------------|-------------|-------------|-------------|
D|-5-----5-----|-9-----9-----|-7-----7-----|-7-----7-----|
A|-3-----3-----|-7-----7-----|-5-----5-----|-5-----5-----|
E|-x-----x-----|-x-----x-----|-x-----x-----|-x-----x-----|
(Chorus 2x) Over here, here, here, here
Over here, here, Iíll be fine


Outro

E|-------------|-------------|--------|
B|-------------|-------------|--------|
G|-------------|-------------|--------|
D|-7-----7-----|-7-----7-----|-5------|
A|-5-----5-----|-5-----5-----|-3------|
E|-x-----x-----|-x-----x-----|-x------|

(Outro) Iíll be fine
Tap to rate this tab
 
# A B C D E F G H I J K L M N O P Q R S T U V W X Y Z