Song name
# A B C D E F G H I J K L M N O P Q R S T U V W X Y Z

An Horse - Walls tab

Walls by
An Horse
tabbed by thiinkbubble

reference video if you need it http://youtu.be/KZfsBBxQeVo

Capo 1

Verse
I have nothing for you...
e|----------|
B|----------|
G|----------|
D|-----7-12-| x2
A|-5-7-5-10-|
E|-3-5------|

Chorus
But whats it all for?...
e|---------|
B|---------|
G|---------|
D|-7-------| x1
A|-5-9-7-9-|
E|---7-5-7-|

Bridge
e|-----|
B|-----|
G|-----|
D|-----| x1
A|-5-7-|
E|-3-5-|

Verse
You have nothing for them...
e|----------|
B|----------|
G|----------|
D|-----7-12-| x2
A|-5-7-5-10-|
E|-3-5------|

Chorus
But whats it all for?
e|---------|
B|---------|
G|---------|
D|-7-------| x3
A|-5-9-7-9-|
E|---7-5-7-|

Verse
You promised me there was a point to this all...
e|----------|
B|----------|
G|----------|
D|-----7-12-| x3
A|-5-7-5-10-|
E|-3-5------|

Just sit tight it'll be all right...
e|----------|
B|----------|
G|----------|
D|----------|
A|-5-7-9-12-|
E|-3-5-7-10-|
Tap to rate this tab
 
# A B C D E F G H I J K L M N O P Q R S T U V W X Y Z