An Jell - Still tab

ng: Still [Bossa Version]
Artist: A.N.JELL
Album: You're Beautiful OST

Tuning:Standard

Missing parts to be updated quite soon.

Intro:
Guitar:
|-0~------0~------0~----------5----3--0~-|
|-5~------5~------5~------5/7----5----3~-|
|-7~------4~------0~------2/-------------|
|----------------------------------------|
|----------------------------------------|
|----------------------------------------|

Keyboard part:
|------------0-5~---|
|---3-5~------------|
|-------------------|
|-------------------| X6
|-------------------|
|-------------------|

Verse:(0:13)
|-----------------4h5-5~-------------------4h5-5~-----5-5--3-3--2-2h3~--|
|-3-5--3-5----3-5----------3-5--3-5----3-5----------5-------------------|
|-----------------------------------------------------------------------|
|-----------------------------------------------------------------------|
|-----------------------------------------------------------------------|
|-----------------------------------------------------------------------|


-3-3--2-0-2--2--3-3--0h2-0~--|
-----------------------------|
-----------------------------|
-----------------------------|
-----------------------------|
-----------------------------|
Tap to rate this tab
 
# A B C D E F G H I J K L M N O P Q R S T U V W X Y Z