Guitaretab - guitar tabs
Song name
# A B C D E F G H I J K L M N O P Q R S T U V W X Y Z

Ana Free - Self-inflicted tab

Highlighted       Show chord diagrams
Ana Free Ė Self-Inflicted

Here's Ana Free's song Self-Inflicted.
I didn't know the names of the chords, so I called it X and Cx.

	       X
e|---------|----------|----------|
B|---------|----------|-----x----|
G|---------|----------|----------|
D|---------|---x------|----------|
A|---------|---x------|----------|
E|---------|----------|----------|

        	Cx
e|---------|----------|-----x----|
B|----x----|----------|----------|
G|---------|----------|----------|
D|---------|---x------|----------|
A|---------|----------|----------|
E|---------|----------|----------|



Just listen to Ana Free's original: http://www.youtube.com/watch?v=MI1IpT23Fgc

For C and D you can put the pinky on the 3rd fret.
You can play this the whole song:

    X                                    C
e|--------0----0----0--------------------------------------|
B|--------3----------------3---------------------3---------|
G|--------0---------------------0--------------------------|
D|--------2------------------------------------------------|
A|--2-----2--------------------------------3---------------|
E|---------------------------------------------------------|

Intro: X C D x3

X
Life is not me
C	D
Blind I can't see where I'm going
X
The truth is that we
C	D
We got to live and we got to grow
X
But you are not me
C	D
And you're not hard done by
X
Don't tell me that now
[ Tab from: http://www.guitaretab.com/a/ana-free/178151.html ]
C D
Hey Hey
C	D	Em
And I fall I fall I fall my friends
C	D	Em
I offer you my hand
C	D	Cx
But you can't run caught in your landslide
Am	D	Em
Living in your hell thatĎs better right
Am	D	Em
Living in your hell thatís better right

X C D
X C D

X
Live the way you feel
C
Yeah you can hold the cards
D
And you can call the shots
X
But you suffocate your mind
C
You want to give it all
D
But how much have you got
X
Temptation ainít easy
C
Youíre self-inflicted but
D	Em
Whos idea
C	D
Whos idea
C	D	Em
And I fall I fall I fall my friends
C	D	Em
I offer you my hand
C	D	Cx
but you canít run caught in your landslide
Am	D	Em
Living in your darkness thatís better right
Am	D	Em
Living in your darkness thatís better right
C	D	X
I fall I fall I fall my friends
C	D	Em
I offer you my hand
C	D	Cx
but you cant run caught in your landslide
C	D	C	D
No you can't run caught in your landslide
Am	D	Em
Living in your hell thatís better right
Am	D	Em
Cause living in your hell must be better right
Am	D	Em
Living in your darkness thatís better right

X C D X C D X
Related for Self-inflicted tab