Guitaretab - guitar tabs
Song name
# A B C D E F G H I J K L M N O P Q R S T U V W X Y Z

Ana Free - Its Time tab

"It's Time" by Ana Free

Tab by Rplacido
               The closest i got to the original, this is how i play it.

Chords used:

Am (variation): 002010
C: 032010
G: 320003
F/A: 003211

(Timing by youtube video)
00:00
Intro:

     Am (variation)       C         G
E||--------0-------|--0---------0-------1-------|
B||--------1-------|----1-------1-------0-------|
G||------0---0-----|----------0---0---0---0-----|
D||----------------|----------------------------|
A||----0-----------|------0-3-------------------|
E||----------------|----------------3-----------|

     Am (variation)       C         G
E||--------0-------|--0---------0---------------|
B||--------1-------|----1-------1-------0-------|
G||------0---0-----|------0---0---0---0---------|
D||----------------|----------------------------|
A||----0-----------|--------3-------------------|
E||----------------|----------------3-----------|


00:12
Verse 

     Am                    C         G
E||--------0-------0---|-----0-------1------| 
B||--------1-------1---|-----1-------0------|  
G||------2---2---2---2-|---0---0---0---0----|  repeat until
D||------------2-------|--------------------|     corus
A||----0---------------|-3------------------|
E||--------------------|---------3----------|

00:53
"Pre-corus"

      F/A       Am Am
E||------1----|-0--0---|
B||------1----|-1--1---|
G||----2---0--|-2--2---|
D||--3--------|-2--2---|
A||-----------|--------|
E||-----------|--------|

00:55
Chorus:

      C
...And it's time
   G            Am               F/A
To tell you that i just see us together,
     C
And it's time
   G            Am               F/A
To tell you I could hold you here forever,
     C
And it's time
   G            Am               F/A
I know you know i miss you but you can't imagine,
       C
How the days don't pass...
        Am
And how the hours last...
        F/A                  G
And i wanna bleed to know i can...
       F/A                    G
Baby, i wanna bleed to know i can...

      C                     Am
And if you ever felt somebody close
    Am                          F/A
The way I feel you, then you would know...
                                G
It only takes a wand to fix your heart.

01:37
"baby and if it made sense...
[ Tab from: http://www.guitaretab.com/a/ana-free/180488.html ]
     C       C          Am      Am         F/A       F/A   G 
E||------0-------0---|------0-------0---|------1-----1-1-1-3-3-3-3---|
B||------1-------1---|------1-------1---|------1-----1-1-1-0-0-0-0---|
G||----0---0---0---0-|----2---2---2---2-|----2---2---2-2-2-0-0-0-0---|
D||------------------|------------------|--3-------3-3-3-3-0-0-0-0---|
A||--3-------3-------|--0-------0-------|------------------2-2-2-2---|
E||------------------|------------------|------------------3-3-3-3---|

01:45
        C     G     Am     F/A
Yeah Yeah Yeah

        C
...And it's time
   G            Am               F/A
To tell you that i just see us together,
     C
And it's time
   G            Am               F/A
To tell you I could hold you here forever,
     C
And it's time
   G            Am               F/A
I know you know i miss you but you can't imagine,

       C
How the days don't pass...
        Am
And how the hours last...
         F/A                     G
And i wanna bleed to know i can...
  Am        F/A                    G
Baby, i wanna bleed to know i can...
        F/A                      G
Baby, I wanna bleed to know I can...

02:28
"and if it made sense...

    C       C         Am      Am        F/A       F/A     G       G
E||-----0-------0---|-----0-------0---|-----1-------1---|-----3-------3---|
B||-----1-------1---|-----1-------1---|-----1-------1---|-----0-------0---|
G||---0---0---0---0-|---2---2---2---2-|---2---2---2---2-|---0---0---0---0-|
D||-----------------|-----------------|-3-------3-------|-----------------|
A||-3-------3-------|-0-------0-------|-----------------|-----------------|
E||-----------------|-----------------|-----------------|-3-------3-------|

02:38
    C       C         Am      Am        F/A       F/A     G       G
E||-----0-------0---|-----0-------0---|-----1-------1---|-----3-------3---|
B||-----1-------1---|-----1-------1---|-----1-------1---|-----0-------0---|
G||---0---0---0---0-|---2---2---2---2-|---2---2---2---2-|---0---0---0---0-|
D||-----------------|-----------------|-3-------3-------|-----------------|
A||-3-------3-------|-0-------0-------|-----------------|-----------------|
E||-----------------|-----------------|-----------------|-3-------3-------|

02:49
"and i wanna bleed...

     F/A       F/A     G       G        Am
E||------1-------1---|-----3-----3------0--|
B||------1-------1---|-----0-----0------1--|
G||----2---2---2---2-|---0---0----------2--|
D||--3-------3-------|------------------2--|
A||------------------|----------------2----|
E||------------------|-3-------3---0h3-----|



Related for Its Time tab
Advertisement will be closed in 10 seconds