Ana - Welcome tab

--------------------------------INTRO---------------------------------------

e--------------------------------------------------------------------|
B--------------------------------------------------------------------|
G--------------------------------------------------------------------|   5x
D---------------------------------7-7-7-7-7-7-7-7--------------------|
A-9-9-9-9-9-9-9-9-5-5-5-5-5-5-5-5-5-5-5-5-5-5-5-5-7-7-7-7-7-7-7-7----|
E-7-7-7-7-7-7-7-7-3-3-3-3-3-3-3-3-----------------5-5-5-5-5-5-5-5----|

--------------------------------CHORUS--------------------------------------

e---------------------------------|
B---------------------------------|
G---------------------------------|                                    2x
D--------------------7------------|
A-9--------5---------5---------7--|
E-7--------3-------------------5--|

                               then play the intro again 4x

                               next play the chorus 2x again..then this riff


e-------------------------------------------------------------------|
B-------------------------------------------------------------------|
G-------------------------------------------------------------------|                  4x
D-------------------------7-x-x-7-x-x-------------------------------|
A-9-x-x-9-x-x-5-x-x-5-x-x-5-x-x-5-x-x-7-x-x-7-x-x-------------------|
E-7-x-x-7-x-x-3-x-x-3-x-x-------------5-x-x-5-x-x-------------------|

                         play intro as loud as you can 4x more times and end with a pickslide.

thank you for listenig to our songs. we are a new band and this is our first song. its 
pretty basic, but whatcha gonna do? haha this is also my first ever tab post. thanks 
again. if you don't know who we are, just go to this link and become a fan. :
http://artists.ultimate-guitar.com/ana/

thank you.
Tap to rate this tab
 
# A B C D E F G H I J K L M N O P Q R S T U V W X Y Z