Song name
# A B C D E F G H I J K L M N O P Q R S T U V W X Y Z

Anaal Nathrakh - Between The Shit And Piss We Are Born tab

Band: Anaal Nathrakh
Song: Between the shit and piss we are born
Album: Eschaton
Copyright: Season of mist records, 2006
Tabbed by: Iceman350; Anooplol: aghataora@hotmail.com

Tuning: C standard. Mick told me its C standard. He's on the record, you can't argue 
that.

Intro x2 (0:00)

Guitar 1
C |------------------------------------------|
G |------------------------------------------|
Eb|------------------------------------------|
Bb|-5-4------4-5-4------5-4----4-5--5-4--8-8-|
F |-3-2------2-3-2------3-2----2-3--3-2--6-6-|
C |------------------------------------------|

Guitar 2
C |-------------------------------------------|
G |-------------------------------------------|
Eb|------4"---------5"-------4"---------------|
Bb|-5-4------4-5-4------5-4-----4-5--5-4--8-8-|
F |-3-2------2-3-2------3-2-----2-3--3-2--6-6-|
C |-------------------------------------------|

Guitar 3 uses whammy bar to bring up pitch on a natural harmonic.

Main riff x4 (0:09)
C |-------------------------------------------|
G |-------------------------------------------|
Eb|------4"---------5"-------4"---------------|
Bb|-5-4------4-5-4------5-4-----4-5--5-4--8-8-|
F |-3-2------2-3-2------3-2-----2-3--3-2--6-6-|
C |-------------------------------------------|

Verse riff x4 (0:27)
C |------------------------------------------------------|
G |------------------------------------------------------|
Eb|------------------------------------------------------|
Bb|------------------------------------------------------|
F |-3-2----------2-3-2---------3-2---------2-5--5-2-5--5-|
C |-1-0--0-0--0--0-1-0--0-0--0-1-0--0-0--0-0-3--3-0-3--3-|
pm       . .  .         . .  .      . .  .

Pre chorus (0:45)
C |----------------------|
G |----------------------|
Eb|----------------------|
Bb|-4-5--5-4-8--8-4-5--5-| x7
F |-2-3--3-2-6--6-2-3--3-|
C |----------------------|

C |-----------|
G |-----------|
Eb|-----------|
Bb|-4-5--5-4--| x1
F |-2-3--3-2--|
C |-----------|

Chorus x2 (0:54)

Not sure about this bit at all

Guitar 1
C |-12-8---------8-|
G |------10---10---|
Eb|---------9------|
Bb|----------------| x4
F |----------------|
C |----------------|

Guitar 1 (cont.)
C |-15-12----------12-|
G |-------13----13----|
Eb|----------12-------|
Bb|-------------------| x4
F |-------------------|
C |-------------------|

Guitar 1 (cont.)
C |-17-13----------13-|
G |-------15----15----|
Eb|----------14-------|
Bb|-------------------| x4
F |-------------------|
C |-------------------|

Guitar 1 (cont.)
C |-19-15----------15-|
G |-------17----17----|
Eb|----------16-------|
Bb|-------------------| x4
F |-------------------|
C |-------------------|


Guitar 2
C |----------------------|
G |----------------------|
Eb|-------7----9---------|
Bb|-7-----5----7----7----|
F |-5---------------5----|
C |----------------------|

Intro x2 (1:12)

Guitar 1
C |------------------------------------------|
G |------------------------------------------|
Eb|------------------------------------------|
Bb|-5-4------4-5-4------5-4----4-5--5-4--8-8-|
F |-3-2------2-3-2------3-2----2-3--3-2--6-6-|
C |------------------------------------------|

Guitar 2
C |-------------------------------------------|
G |-------------------------------------------|
Eb|------4"---------5"-------4"---------------|
Bb|-5-4------4-5-4------5-4-----4-5--5-4--8-8-|
F |-3-2------2-3-2------3-2-----2-3--3-2--6-6-|
C |-------------------------------------------|

Main riff x4 (1:22)
C |-------------------------------------------|
G |-------------------------------------------|
Eb|------4"---------5"-------4"---------------|
Bb|-5-4------4-5-4------5-4-----4-5--5-4--8-8-|
F |-3-2------2-3-2------3-2-----2-3--3-2--6-6-|
C |-------------------------------------------|

Verse riff x4 (1:31)
C |------------------------------------------------------|
G |------------------------------------------------------|
Eb|------------------------------------------------------|
Bb|------------------------------------------------------|
F |-3-2----------2-3-2---------3-2---------2-5--5-2-5--5-|
C |-1-0--0-0--0--0-1-0--0-0--0-1-0--0-0--0-0-3--3-0-3--3-|
pm       . .  .         . .  .      . .  .


Pre chorus (1:49)
C |----------------------|
G |----------------------|
Eb|----------------------|
Bb|-4-5--5-4-8--8-4-5--5-| x7
F |-2-3--3-2-6--6-2-3--3-|
C |----------------------|

C |-----------|
G |-----------|
Eb|-----------|
Bb|-4-5--5-4--| x1
F |-2-3--3-2--|
C |-----------|

Chorus x2 (1:58)

Not sure about this bit at all

Guitar 1
C |-12-8---------8-|
G |------10---10---|
Eb|---------9------|
Bb|----------------| x4
F |----------------|
C |----------------|

Guitar 1 (cont.)
C |-15-12----------12-|
G |-------13----13----|
Eb|----------12-------|
Bb|-------------------| x4
F |-------------------|
C |-------------------|

Guitar 1 (cont.)
C |-17-13----------13-|
G |-------15----15----|
Eb|----------14-------|
Bb|-------------------| x4
F |-------------------|
C |-------------------|

Guitar 1 (cont.)
C |-19-15----------15-|
G |-------17----17----|
Eb|----------16-------|
Bb|-------------------| x4
F |-------------------|
C |-------------------|


Guitar 2
C |----------------------|
G |----------------------|
Eb|-------7----9---------|
Bb|-7-----5----7----7----|
F |-5---------------5----|
C |----------------------|

Verse riff (variation) x5 (2:16)
C |------------------------------------------------------|
G |------------------------------------------------------|
Eb|------------------------------------------------------|
Bb|------------------------------------------------------|
F |-3-2----------2-3-2---------3-2---------2-5--5-2-5--5-|
C |-1-0--0"------0-1-0--0"-----1-0--0"-----0-3--3-0-3--3-|
pm       .              .           .

C |---------------------------------------|
G |---------------------------------------|
Eb|---------------------------------------|
Bb|---------------------------------------|
F |-3-2----------2-3-2---------3-2--------|
C |-1-0--0"------0-1-0--0"-----1-0--0"----|
pm       .              .           .

C |------------------------------------------------------|
G |------------------------------------------------------|
Eb|------------------------------------------------------|
Bb|------------------------------------------------------|
F |-3-2----------2-3-2---------3-2---------2-5--5-2-5--5-|
C |-1-0--0"------0-1-0--0"-----1-0--0"-----0-3--3-0-3--3-|
pm       .              .           .

C |---------------------------------------|
G |---------------------------------------|
Eb|---------------------------------------|
Bb|---------------------------------------|
F |-3-2----------2-3-2---------3-2--------|
C |-1-0--0"------0-1-0--0"-----1-0--0"----|
pm       .              .           .

Bridge x2 (2:43)
C |--------------------------|
G |--------------------------|
Eb|--------------------------|
Bb|--------------------------|
F |-3-2-------------3-2------|
C |-1-0-------------1-0------|


Bridge (variation) x2 (2:52)
C |------------------------------------------------|
G |------------------------------------------------|
Eb|------------------------------------------------|
Bb|------------------------------------------------|
F |-3-2--------2-3-2-------3-2-------2-5--5-2-5--5-|
C |-1-0--------0-1-0-------1-0-------0-3--3-0-3--3-|

Pre chorus (3:01)
C |----------------------|
G |----------------------|
Eb|----------------------|
Bb|-4-5--5-4-8--8-4-5--5-| x7
F |-2-3--3-2-6--6-2-3--3-|
C |----------------------|

C |-----------|
G |-----------|
Eb|-----------|
Bb|-4-5--5-4--| x1
F |-2-3--3-2--|
C |-----------|

Chorus x2 (3:10)

Not sure about this bit at all

Guitar 1
C |-12-8---------8-|
G |------10---10---|
Eb|---------9------|
Bb|----------------| x4
F |----------------|
C |----------------|

Guitar 1 (cont.)
C |-15-12----------12-|
G |-------13----13----|
Eb|----------12-------|
Bb|-------------------| x4
F |-------------------|
C |-------------------|

Guitar 1 (cont.)
C |-17-13----------13-|
G |-------15----15----|
Eb|----------14-------|
Bb|-------------------| x4
F |-------------------|
C |-------------------|

Guitar 1 (cont.)
C |-19-15----------15-|
G |-------17----17----|
Eb|----------16-------|
Bb|-------------------| x4
F |-------------------|
C |-------------------|


Guitar 2
C |----------------------|
G |----------------------|
Eb|-------7----9---------|
Bb|-7-----5----7----7----|
F |-5---------------5----|
C |----------------------|

Solo (I'm not tabbing it out, just improvise it.) (3:29)

Guitar 2
C |----------------------|
G |----------------------|
Eb|-------7----9---------|
Bb|-7-----5----7----7----| x2
F |-5---------------5----|
C |----------------------|

Intro (now outro) x2 (1:12)

Guitar 1
C |------------------------------------------|
G |------------------------------------------|
Eb|------------------------------------------|
Bb|-5-4------4-5-4------5-4----4-5--5-4--8-8-|
F |-3-2------2-3-2------3-2----2-3--3-2--6-6-|
C |------------------------------------------|

Guitar 2
C |-------------------------------------------|
G |-------------------------------------------|
Eb|------4"---------5"-------4"---------------|
Bb|-5-4------4-5-4------5-4-----4-5--5-4--8-8-|
F |-3-2------2-3-2------3-2-----2-3--3-2--6-6-|
C |-------------------------------------------|

Guitar 3 dive bombs.

END


Some lyrics i figures out.

Last part of pre chorus shout of "between the shit and..."

Chorus
"And are you satisfied its unto shit that you return, Are you happy that it is in piss 
you grow"

2nd part of bridge

"Do you even know where you come from, you insignificant fuck?"
Tap to rate this tab
# A B C D E F G H I J K L M N O P Q R S T U V W X Y Z