Song name
# A B C D E F G H I J K L M N O P Q R S T U V W X Y Z

Anaal Nathrakh - Pandemonic Hyperblast tab

Band: Anaal Nathrakh
Song: Pandemonic Hyperblast
Album: The Codex Necro
Copyright: Recording copyright owned by Mordgrimm records; Song copyright owned by Dave 
Hunt and Mick "Irrumator" Kenney
Tabbed by: Iceman350; Anooplol; aghataora@hotmail.com

0:00 -SOUND EFFECT-

Riff 1 (0:24) x8
D|------------------|
A|------------------|
F|------------------|
C|-/8"-/8"-/8"-/9"--|
G|-/6"-/6"-/6"-/7"--|
D|------------------|

Riff 2 (0:41) x2
D|--------------------------------------------|
A|--------------------------------------------|
F|--------------------------------4"-3"-------|
C|-5"-----6"-5"-----6"-5"-----6"--------5"-4"-|
G|--------------------------------------------|
D|--------------------------------------------|

Riff 3 (0:57) x4
D|--------------6-6--------|
A|----------7-7-7-7--------|
F|----8-8-8-8-8-8-8--8-----|
C|-8--8-8-8-8-8-8-8--8--9--|
G|-6--6-6-6-6-6-6-6--6--7--|
D|-------------------------|
	Not precise, just estimating, use Eb minor for the start and hit a D5 for the last chord

Riff 1 (1:06) x4
D|------------------|
A|------------------|
F|------------------|
C|-/8"-/8"-/8"-/9"--|
G|-/6"-/6"-/6"-/7"--|
D|------------------|

1:14 -PAUSE-

Riff 4 (1:16) x8
D|-----------|
A|-----------|
F|-----------|
C|-------8"--|
G|-6"----6"--|
D|-----------|

1:32 -SLIDE-

Riff 5 (1:33) x5
D|-------7\----|
A|-------8\----|
F|-------9\----|
C|-------9\----| x3
G|-------7\----|
D|--0----------|

D|-------------|
A|-------------|
F|-------------|
C|-------------|
G|-------------|
D|-3"----1"----|

2:07 -LOW TO HIGH PART- GUITAR PAUSE

Riff 2 (2:09) x2
D|--------------------------------------------|
A|--------------------------------------------|
F|--------------------------------4"-3"-------|
C|-5"-----6"-5"-----6"-5"-----6"--------5"-4"-|
G|--------------------------------------------|
D|--------------------------------------------|

Riff 3 (2:25) x4
D|--------------6-6--------|
A|----------7-7-7-7--------|
F|----8-8-8-8-8-8-8--8-----|
C|-8--8-8-8-8-8-8-8--8--9--|
G|-6--6-6-6-6-6-6-6--6--7--|
D|-------------------------|
	Not precise, just estimating, use Eb minor for the start and hit a D5 for the last chord

Riff 6 (2:34) x4
D|------------------|
A|------------------|
F|------------------|
C|------------------|
G|-/5"-/5"-/5"-/6"--|
D|-/3"-/3"-/3"-/4"--|

2:42 -HALF SECOND PAUSE-

Riff 5 (2:42) x5
D|-------7\----|
A|-------8\----|
F|-------9\----|
C|-------9\----| x3
G|-------7\----|
D|--0----------|

D|-------------|
A|-------------|
F|-------------|
C|-------------|
G|-------------|
D|-3"----1"----|

Riff 7 (3:16) x8
D|---------------|
A|---------------|
F|---------------|
C|---------------|
G|-------/8"-----|
D|-0-------------|

3:33 -SOUND EFFECT-

3:51 END
Tap to rate this tab
# A B C D E F G H I J K L M N O P Q R S T U V W X Y Z