Song name
# A B C D E F G H I J K L M N O P Q R S T U V W X Y Z

Anadel - In The Water tab

Tabbed by Cody Martin

Standard Tuning-Capo 2

Intro-2x

E|-----------------------------------------------------------------------------|
B|---0--------0---------0---------0---------0--------0--------0--------0-------|
G|--------2---------2--------2---------0--------0---------0--------0--------2--|
D|-----2----2---2----2---2----2---2----2---2----2---2---2---2---2---2----------|
A|-0---------------------------------------------------------------------------|
E|-----------------------------------------------------------------------------|

Verse- You hold your every breath...

     Aadd2

E|-----------------------------------------------------------------------------------|
B|---0---------0-------0--------0---------0-------0--------0---------0---------------|
G|--------2--------2--------2--------2--------2--------2--------2---------0----------|
D|-----2----2---2---2---2---2---2----2---2---2---2---2---2----2---2------------------|
A|-0---------------------------------------------------------------------------------|
E|-----------------------------------------------------------------------------------|

    Cmaj7

E|---------------------------------------------------------0------------------------|
B|---0--------0--------0--------0--------0---------0-------0--------0---------------|
G|--------0--------0-------0---------0--------0------------------0--------2---------|
D|-----2----2---2---2--2---2----2--------2----2---2---2---2---2---2-----------------|
A|-3-------------------------------------3------------------------------------------|
E|----------------------------------------------------------------------------------|

Chorus- Against the tide we struggle

E|--------------------------------------------------------------------------------|
B|---0---------0-------0-------0--------0---------0-------0--------0--------------|
G|--------0--------0--------0-------0--------0--------0--------0--------0---------|
D|-----2----2---2---2---2---2---2-------2----2---2---2---2---2---2----------------|
A|---------------------------------------3----------------------------------------|
E|-0------------------------------------------------------------------------------|

Bridge:

    Gmaj7

E|-----------------------------------------------------------------------------------|
B|---0-------0---------0--------0-------0--------0-------0---------0-----------------|
G|--------0--------0--------0-------0--------0--------0--------0--------0------------|
D|-----4---4---4----4---4---4---4-------4----4---4---4---4---4---4---4---------------|
A|-5------------------------------------5--------------------------------------------|
E|-----------------------------------------------------------------------------------|

Cmaj7

E|---------------------------------------------------------0------------------------|
B|---0--------0--------0--------0--------0---------0-------0--------0---------------|
G|--------0--------0-------0---------0--------0------------------0--------0---------|
D|-----2----2---2---2--2---2----2--------2----2---2---2---2---2---2-----------------|
A|-3-------------------------------------3------------------------------------------|
E|----------------------------------------------------------------------------------|
Tap to rate this tab
# A B C D E F G H I J K L M N O P Q R S T U V W X Y Z