Song name
# A B C D E F G H I J K L M N O P Q R S T U V W X Y Z

Anadivine - Filling The Lungs tab

this is my first tab, but im pretty sure its just about all right.
the song is in standard tuning

please email me at Tekron420@hotmail.com if you have any bitching or anything to do,
cuz I might not be right! I havn't even been playing for 2 years :( 


. = palm mute
/ = slide

Intro                   0:00 - 0:12
|----------------------------------|
|----------------------------------|
|--9-9--9--7-7--7--5-5--5--4-4--4--|
|--9-9--9--7-7--7--5-5--5--4-4--4--|
|--7-7--7--5-5--5--3-3--3--2-2--2--|
|----------------------------------| play this x4
   . .     . .     . .     . .

                        0:12 - 0:25  
|----------------------------------|
|----------------------------------|
|--9--9-9--7--7-7--5--5-5--4--4-4--|
|--9--9-9--7--7-7--5--5-5--4--4-4--|
|--7--7-7--5--5-5--3--3-3--2--2-2--|
|----------------------------------| play this x4
      . .     . .     . .     . .

                        0:25 - 0:28
|----------------|
|----------------|
|--9-9-9--9-9-9--|
|--9-9-9--9-9-9--|
|--7-7-7--7-7-7--|
|----------------|

lyrics : My eyes and ears now focus on the change.
                        0:28 - 0:39
|----------------------|
|----------------------|
|--9xxx9-9--9-9xxx9-9--|
|--9xxx9-9--9-9xxx9-9--|
|--7xxx7-7--7-7xxx9-7--|
|----------------------|

lyrics : If friendship sang a song my voice would strain

|----------------------|
|----------------------|
|----------------------|
|----------------------|
|----------------------|
|----------------------| pause during this line

lyrics : Every note's in vain,

|----------------------|
|----------------------|
|--9xxx9-9--9-9xxx9-9--|
|--9xxx9-9--9-9xxx9-9--|
|--7xxx7-7--7-7xxx9-7--|
|----------------------|

lyrics : every note.

|----------------------|
|----------------------|
|----------------------|
|----------------------|
|----------------------|
|----------------------| pause during this line

this is the way the verse goes, use the same tab for every verse. ^^^
the other parts of the song use the same chords from the intro and the verse


The cool little part that goes through out the song randomely

|----------------------|------------------|
|----------------------|------------------|
|---4-1/9-7-5-4--------|--7-5-4-----------|
|--5-------------------|-------7-5-4/5/4--|
|----------------------|------------------|
|----------------------|------------------|

Enjoi
Tap to rate this tab
 
# A B C D E F G H I J K L M N O P Q R S T U V W X Y Z