Song name
# A B C D E F G H I J K L M N O P Q R S T U V W X Y Z

Anadivine - Frequency Hostage tab

This My First Tab So Give Me A Break.


|--------9--------------9------|------7------7------7------7--|-11/9--------|
|------7---7----------7---7----|--4h5----4h5----4h5----4h5----|-------11-11-|
|--6/8-------8----6/8-------8--|------------------------------|-------------|
|------------------------------|------------------------------|-------------|
|------------------------------|------------------------------|-------------|
|------------------------------|------------------------------|-------------|

-14---11/9----------14--|-------14---------14----------14---------14--|
------------11-11h12----|--11h12------11h12------11h12------11h12-----|
------------------------|---------------------------------------------|
------------------------|---------------------------------------------|
------------------------|---------------------------------------------|
------------------------|---------------------------------------------|
Tap to rate this tab
# A B C D E F G H I J K L M N O P Q R S T U V W X Y Z