Guitaretab - guitar tabs
Song name
# A B C D E F G H I J K L M N O P Q R S T U V W X Y Z
Home / A / Anajo / Streuner tab

Anajo - Streuner tab

Highlighted       Show chord diagrams
"Streuner"
von Anajo

getabbed von ZaB23

(B=Bb  in den strophen:
e|-1----------6-----------|
h|-3----------6-----------|
g|-3----------7-----------|
d|-3----------8-----------|
a|-1----------8-----------|
e|-1----------6-----------|)

Dm			     B
Ich verirre mich meistens im Tageslicht
	Dm			     A
In der Wohnung zum Beispiel zwischen Küche und Schreibtisch
    Dm			   B
Ich bewege mich zwar, doch agiere nicht
	 Dm			A	
Nun, ich pflege den Freistil absolut nicht fanatisch

        B		Dm     
Aber du weißt doch, ich brauch meinen Auslauf
    B
Ich will hier nicht eingeh'n
    A
Ich will hier nicht durchdreh'n
B		    Dm
Du siehst doch, mir geht bald die Luft aus
   B			 A
Im tropischen Klima - in deinem Gewächshaus

ref.:
B  F
Du kennst mich
    A	    Dm
Ich bin ein Streuner
    B		F
Ein notorischer Träumer
	A         Dm
Ich verliebe mich schnell
B  F			A	Dm
Du weißt,es zieht mich irgendwie weiter
	B	 F	    A
Wie nen einsamen Reiter zum nächsten Duell
[ Tab from: http://www.guitaretab.com/a/anajo/180791.html ]
Du belieferst mich ständig mit Tagestipps
Du versüßt mir die Öde, doch es wird langsam klebrig
Zwischen Himbeerbonbons und Kartoffelchips
Ich weiß, das ist blöd jetzt,aber weiter so geht nicht
Und, ich sag dir: Da hilft auch kein Handkuss
Weil alles so gleich ist,sich alles mal ändern muss
Ich glaub nicht, dass du nur der Grund bist
Doch ich dreh meine Runden bis das Fressen gefunden ist

Zwischenspiel:
gitarre 1 (2 mal)				      
e|-----------------------------1--0--0--------|
h|-------1---------1--------1----------3-1-3--|
g|---2-----2----2-------2---------------------|
d|-3---3------3---3---3---3-------------------|
a|--------------------------------------------|
e|--------------------------------------------|
			
e|-------------------------------1---3-0-(5)--|
h|-------1---------1----------1---------------|
g|---2-----2----2-----2---2-------------------|
d|-3---3------3---3-----3---3-----------------|
a|--------------------------------------------|
e|--------------------------------------------|

Danach Zupfen auf B, A, F, Dm - Glockenspiel

ref. 2x

e|-6-6-6-6--5-5-5-5--3-3-3-3--5-5-5-5---|
           B               Dm
Ja das ist eventuell nicht sehr orginell
     B             A                Dm
Doch hochoffiziell mein Naturell

e|-6-6-5-5-3-3-5-5---|
h|-----------------3-|

Related for Streuner tab