Guitaretab - guitar tabs
Song name
# A B C D E F G H I J K L M N O P Q R S T U V W X Y Z

Anajo - So Was Passiert tab

-------------------------------------------------------------------------------
			     SO WAS PASSIERT - Anajo
-------------------------------------------------------------------------------
Tabbed by: AndreaHB
Email: maurer-andrea@web.de

Tuning: EADGBe

PART A:
    E   Am    G      E
e|----------------------------------|
B|----------------------------------|
G|---1----2-----0------1------------|
D|----2--2-2-----0------------------|
A|--2---0---------------2-----------|
E|-0----------3----0-0--------------|

PART B:
   E    A      D      E
e|--------------2-------------------|
B|----------------(3)---------------|
G|----1---2------2------1-----------|
D|---2---2-2---0------2--2----------|
A|--2---0--------------2------------|
E|-0--------------------------------|
[ Tab from: http://www.guitaretab.com/a/anajo/86156.html ]
VERSE 1:
(PART A)
Keine Polizei, ich bin Opfer, aber frei 
Ich habe alles so gewollt 
Keine Jammerei, du bist Täter, ich bin high 
Du hast mich förmlich überrollt 
(PART B)
Wer hat letzte Nacht 
Dieses Fenster aufgemacht 
Man lebt gefährlich so allein 
Ich konnt’ nicht schlafen, ich war wach 
Doch ich hörte keinen Krach 
Es muss ein echter Profi am Werk gewesen sein 

CHORUS:
        E       A              G               E... 
Ja das passiert, wenn man die Tür nicht verschließt 
So was passiert, wenn man die Tür nicht verschließt 

VERSE 2:  
(PART A)
Sag mir was dich treibt und was am Ende bleibt 
Ich habe vieles nicht kapiert 
Hier gibt es nichts zu holen 
Doch das hast du gestohlen 
Ich hab nicht mehr, es tut mir leid
(PART B)
Das ist wohl ein Geschenk 
Ein kleines Souvenir, du hast die Spuren nicht kaschiert 
Und wie man es auch schiebt, du hast ja im Prinzip 
Die auf dich ausgesetzte Belohnung verdient 

REPEAT CHORUS:

SOLO:

F#m D ...

F#  Bm   A   F#...
...
Ja das passiert, wenn man die Tür nicht verschließt 
So was passiert, wenn man die Tür nicht verschließt 
So was passiert! 
So was passiert! 
So was passiert!


| /  slide up
| \  slide down
| h  hammer-on
| p  pull-off
| ~  vibrato
| +  harmonic
| x  Mute note
============================================================================

Related for So Was Passiert tab