Song name
# A B C D E F G H I J K L M N O P Q R S T U V W X Y Z

Anaka - Miserys Child tab

----------------------------------------------------------------------------
			     Misery's Child - AnAkA
----------------------------------------------------------------------------
Tabbed by: Nate 101
Email:N_Pulse_A7X@hotmail.co.uk

http://www.anaka.net/

Tuning: Drop D


Hey guys this is a song called Misery's Child from AnAka's new album Rust & Jade. Hope 
like it

Intro Part 1:
X2
e|-------------------------------------------------------------------------|
B|-------------------------------------------------------------------------|
G|-------------------------------------------------------------------------|
D|-------------------------------------------------------------------------|
A|-0-0----0-0----0-0----------0-1-0---0------------------------------------|
D|-0-0----0-0----0-0----------------3---3-2-3------------------------------|
PM x x    x x    x x

Intro Part 2:
X4
e|-------------------------------------------------------------------------|
B|-------------------------------------------------------------------------|
G|-------------------------------------------------------------------------|
D|-0-----------0----------0------------------------------------------------|
A|-0-0-0--5*~--0-0-0--3*~-0-0-0--1*-br-0-1-0---0---------------------------|
D|-0-0-0-------0-0-0------0-0-0--------------3---3-2-3---------------------|
PM   x x         x x        x x

Verse One:
X2
e|-------------------------------------------------------------------------|
B|-------------------------------------------------------------------------|
G|-------------------------------------------------------------------------|
D|-------------------------------------------------------------------------|
A|0-0--0-0-0--0-0-0--0-0-0--0-0-0--0-0-0--0---0-1-0-----0------------------|
D|0-0--0-0-0--0-0-0--0-0-0--0-0-0--0-0-0--0----------3----3-2-3------------|
PMx x  x x x  x x x  x x x  x x x  x x x  x

Pre Chorus - Lead Gutar*
X4
e|-------------------------------------------------------------------------|
B|-------------------------------------------------------------------------|
G|-7~~~----7--9--10~~~~---9--10--9~~~~~~----7-/9\-7~~~~--------------------|
D|-------------------------------------------------------------------------|
A|(5)~~~--(5)(7)(8)~~~~--(7)-(8)-(7)~~~-----(5)(7)(5)----------------------|
D|-------------------------------------------------------------------------|
* The rhythm guitar sounds like an acoustic, and is rather quiet in the background, so i 
figured that out yet
*Notes in (Brackets) are optional octaves

Chorus
X2
e|-------------------------------------------------------------------------|
B|-------------------------------------------------------------------------|
G|-------------------------------------------------------------------------|
D|-0-----------0----------0------------------------------------------------|
A|-0-0-0--5*~--0-0-0--3*~-0-0-0--1*-br-0-1-0---0---------------------------|
D|-0-0-0-------0-0-0------0-0-0--------------3---3-2-3---------------------|
PM   x x         x x        x x

Verse Two
X2
e|-------------------------------------------------------------------------|
B|-------------------------------------------------------------------------|
G|-------------------------------------------------------------------------|
D|-------------------------------------------------------------------------|
A|0-0--0-0-0--0-0-0--0-0-0--0-0-0--0-0-0--0---0-1-0-----0------------------|
D|0-0--0-0-0--0-0-0--0-0-0--0-0-0--0-0-0--0----------3----3-2-3------------|
PMx x  x x x  x x x  x x x  x x x  x x x  x

Pre Chorus Two:
X4
e|-------------------------------------------------------------------------|
B|-------------------------------------------------------------------------|
G|-7~~~----7--9--10~~~~---9--10--9~~~~~~----7-/9\-7~~~~--------------------|
D|-------------------------------------------------------------------------|
A|(5)~~~--(5)(7)(8)~~~~--(7)-(8)-(7)~~~-----(5)(7)(5)----------------------|
D|-------------------------------------------------------------------------|

Chorus
X1
e|-------------------------------------------------------------------------|
B|-------------------------------------------------------------------------|
G|-------------------------------------------------------------------------|
D|-0-----------0----------0------------------------------------------------|
A|-0-0-0--5*~--0-0-0--3*~-0-0-0--1*-br-0-1-0---0---------------------------|
D|-0-0-0-------0-0-0------0-0-0--------------3---3-2-3---------------------|
PM   x x         x x        x x

Continued
e|-------------------------------------------------------------------------|
B|-------------------------------------------------------------------------|
G|-------------------------------------------------------------------------|
D|-0-----------0----------0------------------------------------------------|
A|-0-0-0--5*~--0-0-0--3*~-0-0-0--1*-br-0-1-0---0-------0-1-0---0-----------|
D|-0-0-0-------0-0-0------0-0-0--------------3---3-2-3-------3---3-2-3-----|
PM   x x         x x        x x        x x x x x x x x x x x x x x x x

e|-------------------------------------------------------------------------|
B|-------------------------------------------------------------------------|
G|-------------------------------------------------------------------------|
D|-------------------------------------------------------------------------|
A|-0-1-0---0---------------------------------------------------------------|
D|-------3---3-2-3---------------------------------------------------------|

Break Down:
X4
e|-------------------------------------------------------------------------|
B|-------------------------------------------------------------------------|
G|-------------------------------------------------------------------------|
D|-------------------------------------------------------------------------|
A|-------------------------------------------------------------------------|
D|1p0-0-0-0-0-0-0-1p0-0-1p0-0-1p0------------------------------------------|
PM    x x x x x x     x     x

Solo
X2
e|-------------------------------------------------------------------------|
B|-------------------------------------------------------------------------|
G|-7----7-9-10---9-10-9---7-9-7--------------------------------------------|
D|-------------------------------------------------------------------------|
A|-5----5-7-8----7--8-7---5-7-5--------------------------------------------|
D|-------------------------------------------------------------------------|
(thats all i have for the solo now, but the rest of backing solo is provided)

Solo Backing:
X4
e|-------------------------------------------------------------------------|
B|-------------------------------------------------------------------------|
G|-------------------------------------------------------------------------|
D|-------------------------------------------------------------------------|
A|1p0-0-0-0-0-0-0-1p0-0-1p0-0-1p0------------------------------------------|
D|1p0-0-0-0-0-0-0-1p0-0-1p0-0-1p0------------------------------------------|
PM    x x x x x x     x     x

Solo Backing Cont:
X4
e|-------------------------------------------------------------------------|
B|-------------------------------------------------------------------------|
G|-------------------------------------------------------------------------|
D|-------------------------------------------------------------------------|
A|2p1-1-1-1-1-1-1-2p1-1-2p1-1-2p1------------------------------------------|
D|2p1-1-1-1-1-1-1-2p1-1-2p1-1-2p1------------------------------------------|
PM    x x x x x x     x     x

Solo Backing Cont:
X3
e|-------------------------------------------------------------------------|
B|-------------------------------------------------------------------------|
G|-------------------------------------------------------------------------|
D|-------------------------------------------------------------------------|
A|1p0-0-0-0-0-0-0-1p0-0-1p0-0-1p0------------------------------------------|
D|1p0-0-0-0-0-0-0-1p0-0-1p0-0-1p0------------------------------------------|
PM    x x x x x x     x     x

e|-------------------------------------------------------------------------|
B|-------------------------------------------------------------------------|
G|-------------------------------------------------------------------------|
D|-------------------------------------------------------------------------|
A|1p0-0-0-0-0-0-0--0-1-0---0-----------------------------------------------|
D|1p0-0-0-0-0-0-0--------3---3-2-3-----------------------------------------|
PM    x x x x x x

Chorus Three:
e|-------------------------------------------------------------------------|
B|-------------------------------------------------------------------------|
G|-------------------------------------------------------------------------|
D|-0-----------0----------0------------------------------------------------|
A|-0-0-0--5*~--0-0-0--3*~-0-0-0--1*-br-0-1-0---0---------------------------|
D|-0-0-0-------0-0-0------0-0-0--------------3---3-2-3---------------------|
PM   x x         x x        x x

e|-------------------------------------------------------------------------|
B|-------------------------------------------------------------------------|
G|-------------------------------------------------------------------------|
D|-0-----------0----------0------------------------------------------------|
A|-0-0-0--/5~--0-0-0--/3~-0-0-0--/1-br-0-1-0---0---------------------------|
D|-0-0-0-------0-0-0------0-0-0--------------3---3-2-3---------------------|

Verse 3:
X2
e|-------------------------------------------------------------------------|
B|-------------------------------------------------------------------------|
G|-------------------------------------------------------------------------|
D|-------------------------------------------------------------------------|
A|0-0--0-0-0--0-0-0--0-0-0--0-0-0--0-0-0--0---0-1-0-----0------------------|
D|0-0--0-0-0--0-0-0--0-0-0--0-0-0--0-0-0--0----------3----3-2-3------------|
PMx x  x x x  x x x  x x x  x x x  x x x  x

Pre Chorus Three
X4
e|-------------------------------------------------------------------------|
B|-------------------------------------------------------------------------|
G|-7~~~----7--9--10~~~~---10--12--9~~~~~~----7-/9\-7~~~~-------------------|
D|-------------------------------------------------------------------------|
A|(5)~~~--(5)(7)(8)~~~~--(8)-(10)(7)~~~-----(5)(7)(5)----------------------|
D|-------------------------------------------------------------------------|

Chorus Four:
X2
e|-------------------------------------------------------------------------|
B|-------------------------------------------------------------------------|
G|-------------------------------------------------------------------------|
D|-0-----------0----------0------------------------------------------------|
A|-0-0-0--5*~--0-0-0--3*~-0-0-0--1*-br-0-1-0---0---------------------------|
D|-0-0-0-------0-0-0------0-0-0--------------3---3-2-3---------------------|
PM   x x         x x        x x

Ending
e|-------------------------------------------------------------------------|
B|-------------------------------------------------------------------------|
G|-------------------------------------------------------------------------|
D|------------------------------------------------------0~~~~~~------------|
A|-0-1-0---0-------0-1-0---0--------0-1-0----0----------0~~~~~~------------|
D|-------3---3-2-3-------3---3-2-3---------3---3-2-3----0~~~~~~------------|

End


Hope You Enjoyed The Song :)

| /  slide up
| \  slide down
| h  hammer-on
| p  pull-off
| ~  vibrato
| +  harmonic
| x  Mute note
Tap to rate this tab
# A B C D E F G H I J K L M N O P Q R S T U V W X Y Z